Blink 182 - All The Small Things Chords & Tabs

 

All The Small Things Chords & Tabs

Blink 182 Chords & Tabs

Version: 9 Type: Tab 0 ratings
1 star 2 stars 3 stars 4 stars 5 stars
comments

All The Small Things Tab

Blink 182 - All the Small Things
Tabbed By:Mike,hawker489@aol.com
Standard Tuning
*=palm mute

Intro
e---------------------------------------------------
B---------------------------------------------------
G--------55555555--55555555-------------------------
D-(5-3)--55555555--33333333--55555555--------3-3-3--
A-(5-3)--33333333------------55555555--0000--3-3-3--
E-(3-1)----------------------33333333--------1-1-1--
() means only do on the first time.    ****
[ Tab from: http://www.guitartabs.cc/tabs/b/blink_182/all_the_small_things_tab_ver_9.html ]
Verse
e-----------------------------------------
B-----------------------------------------
G-----------------------------------------
D-55555555--------------------------------
A-33333333--55555555--33333333--55555555--
E-----------33333333--11111111--33333333--
  ********  ********  ********  ********

Chorus(nana, nana)
e---------------------------------------
B---------------------------------------
G-5555555555555555----------------------
D-5555555555555555--55555555--33333333--
A-3333333333333333--55555555--33333333--
E-------------------33333333--11111111--

Riff1
e-------------------------------------------------------
B-------------------------------------------------------
G-55555555--10-10-10-10-9-9-9-9-------------------------
D-55555555--10-10-10-10-9-9-9-9--55555555--------3-3-3--
A-33333333--8--8--8--8--7-7-7-7--55555555--0000--3-3-3--
E--------------------------------33333333--------1-1-1--
                                           ****

That's it. Pretty easy, just listen to te song for the 
number of times and the order.
Comments