Blink 182 - All The Small Things Chords & Tabs

 

All The Small Things Chords & Tabs

Blink 182 Chords & Tabs

Version: 12 Type: Tab 0 ratings
1 star 2 stars 3 stars 4 stars 5 stars
comments

All The Small Things Tab

   
#----------------------------------PLEASE NOTE---------------------------------#
#This file is the author's own work and represents their interpretation of the #
#song. You may only use this file for private study, scholarship, or research. #
#------------------------------------------------------------------------------##

                              ALL THE SMALL THINGS
                            As recorded by Blink-182

Words and Music by Mark Hoppus and Tom DeLonge

Gtr I (E A D G B E) - 'Dist.'

  Q=148
 4/4
  Gtr I
  E E
|--------|
|--------|
|--------|
|-5-3----|
|-5-3----|
|-3-1----|


                                                          PM----|
  E E E E E E E E   E E E E E E E E   E E E E E E E E   E E E E E E E E
|-----------------|-----------------|-----------------|------------------||
|-----------------|-6-6-6-6-6-6-6-6-|-----------------|-----------------o||
|-5-5-5-5-5-5-5-5-|-5-5-5-5-5-5-5-5-|-----------------|------------------||
|-5-5-5-5-5-5-5-5-|-3-3-3-3-3-3-3-3-|-5-5-5-5-5-5-5-5-|-5---------3-3-3--||
|-3-3-3-3-3-3-3-3-|-----------------|-5-5-5-5-5-5-5-5-|-5-0-0-0-0-3-3-3-o||
|-----------------|-----------------|-3-3-3-3-3-3-3-3-|-3---------1-1-1--||


  PM------------------------------------------------------------------|
  E E E E E E E E   E E E E E E E E   E E E E E E E E   E E E E E E E E
|-----------------|-----------------|-----------------|-----------------|
|-----------------|-----------------|-----------------|-----------------|
|-----------------|-----------------|-----------------|-----------------|
|-5-5-5-5-5-5-5-5-|-----------------|-----------------|-----------------|
|-3-3-3-3-3-3-3-3-|-5-5-5-5-5-5-5-5-|-3-3-3-3-3-3-3-3-|-5-5-5-5-5-5-5-5-|
|-----------------|-3-3-3-3-3-3-3-3-|-1-1-1-1-1-1-1-1-|-3-3-3-3-3-3-3-3-|


  PM------------------------------------------------------------------|
  E E E E E E E E   E E E E E E E E   E E E E E E E E   E E E E E E E E
|-----------------|-----------------|-----------------|-----------------|
|-----------------|-----------------|-----------------|-----------------|
|-----------------|-----------------|-----------------|-----------------|
|-5-5-5-5-5-5-5-5-|-----------------|-----------------|-----------------|
|-3-3-3-3-3-3-3-3-|-5-5-5-5-5-5-5-5-|-3-3-3-3-3-3-3-3-|-5-5-5-5-5-5-5-5-|
|-----------------|-3-3-3-3-3-3-3-3-|-1-1-1-1-1-1-1-1-|-3-3-3-3-3-3-3-3-|


  PM------------------------------------------------------------------|
  E E E E E E E E   E E E E E E E E   E E E E E E E E   E E E E E E E E
|-----------------|-----------------|-----------------|-----------------|
|-----------------|-----------------|-----------------|-----------------|
|-----------------|-----------------|-----------------|-----------------|
|-5-5-5-5-5-5-5-5-|-----------------|-----------------|-----------------|
|-3-3-3-3-3-3-3-3-|-5-5-5-5-5-5-5-5-|-3-3-3-3-3-3-3-3-|-5-5-5-5-5-5-5-5-|
|-----------------|-3-3-3-3-3-3-3-3-|-1-1-1-1-1-1-1-1-|-3-3-3-3-3-3-3-3-|


  PM----------------------------------------------------------------|
  E E E E E E E E   E E E E E E E E   E E E E E E E E   E E E E E E E
|-----------------|-----------------|-----------------|----------------|
|-----------------|-----------------|-----------------|----------------|
|-----------------|-----------------|-----------------|----------------|
|-5-5-5-5-5-5-5-5-|-----------------|-----------------|----------------|
|-3-3-3-3-3-3-3-3-|-5-5-5-5-5-5-5-5-|-3-3-3-3-3-3-3-3-|-5-5-5-5-5-5-5--|
|-----------------|-3-3-3-3-3-3-3-3-|-1-1-1-1-1-1-1-1-|-3-3-3-3-3-3-3--|


  E E E
|------------|---------|---------|----|
|------------|---------|---------|----|
|-5-5-5------|---------|---------|----|
|-5-5-5------|---------|---------|----|
|-3-3-3------|---------|---------|----|
|------------|---------|---------|----|


  E E E E E E E E   E E E E E E E E   E E E E E E E E   E E E E E E E E
|-----------------|-----------------|-----------------|-----------------|
|-----------------|-----------------|-----------------|-----------------|
|-5-5-5-5-5-5-5-5-|-5-5-5-5-5-5-5-5-|-----------------|-----------------|
|-5-5-5-5-5-5-5-5-|-5-5-5-5-5-5-5-5-|-5-5-5-5-5-5-5-5-|-3-3-3-3-3-3-3-3-|
|-3-3-3-3-3-3-3-3-|-3-3-3-3-3-3-3-3-|-5-5-5-5-5-5-5-5-|-3-3-3-3-3-3-3-3-|
|-----------------|-----------------|-3-3-3-3-3-3-3-3-|-1-1-1-1-1-1-1-1-|

[ Tab from: http://www.guitartabs.cc/tabs/b/blink_182/all_the_small_things_tab_ver_12.html ]
                                                                    PM----|
  E E E E E E E E    E  E  E  E  E  E  E  E   E E E E E E E E E   E E E E E
|-----------------|-------------------------|-------------------|-------------|
|-----------------|-------------------------|-------------------|-------------|
|-5-5-5-5-5-5-5-5-|-10-10-10-10-10-10-10-10-|-7-7-7-7-7-7-7-7-7-|-7-----------|
|-x-x-x-x-x-x-x-x-|--x--x--x--x--x--x--x--x-|-x-x-x-x-x-x-x-x-x-|-x-----------|
|-3-3-3-3-3-3-3-3-|--8--8--8--8--8--8--8--8-|-5-5-5-5-5-5-5-5-5-|-5-0-0-0-0---|
|-----------------|-------------------------|-------------------|-------------|


  E E E
|------------|---------|----------|-----||
|------------|---------|----------|----o||
|-5-5-5------|---------|----------|-----||
|-x-x-x------|---------|----------|-----||
|-3-3-3------|---------|----------|----o||
|------------|---------|----------|-----||


  PM------------------------------------------------------------------|
  E E E E E E E E   E E E E E E E E   E E E E E E E E   E E E E E E E E
|-----------------|-----------------|-----------------|-----------------|
|-----------------|-----------------|-----------------|-----------------|
|-----------------|-----------------|-----------------|-----------------|
|-5-5-5-5-5-5-5-5-|-----------------|-----------------|-----------------|
|-3-3-3-3-3-3-3-3-|-5-5-5-5-5-5-5-5-|-3-3-3-3-3-3-3-3-|-5-5-5-5-5-5-5-5-|
|-----------------|-3-3-3-3-3-3-3-3-|-1-1-1-1-1-1-1-1-|-3-3-3-3-3-3-3-3-|


  PM----------------------------------------------------------------|
  E E E E E E E E   E E E E E E E E   E E E E E E E E   E E E E E E E
|-----------------|-----------------|-----------------|----------------|
|-----------------|-----------------|-----------------|----------------|
|-----------------|-----------------|-----------------|----------------|
|-5-5-5-5-5-5-5-5-|-----------------|-----------------|----------------|
|-3-3-3-3-3-3-3-3-|-5-5-5-5-5-5-5-5-|-3-3-3-3-3-3-3-3-|-5-5-5-5-5-5-5--|
|-----------------|-3-3-3-3-3-3-3-3-|-1-1-1-1-1-1-1-1-|-3-3-3-3-3-3-3--|


   E                     E           E
|-----------|---------|-----------|-------|
|-^5--------|---------|-----------|-------|
|-^5--------|---------|-^5--------|-^7----|
|-^5--------|---------|-^3--------|-^5----|
|-^3--------|---------|-^3--------|-^5----|
|-----------|---------|-----------|-------|


  PM------------------------------------------------------------------|
  E E E E E E E E   E E E E E E E E   E E E E E E E E   E E E E E E E E  3x
|-----------------|-----------------|-----------------|------------------||
|-----------------|-----------------|-----------------|-----------------o||
|-5---5---5---5---|-5---5---5---5---|-5---5---5---5---|-4---4---4---4----||
|---5---5---5---5-|---5---5---5---5-|---5---5---5---5-|---5---5---5---5--||
|-----------------|-----------------|-----------------|-----------------o||
|-----------------|-----------------|-----------------|------------------||


  E E E E E E E E   E E E E E E E E   E E E E E E E E   E E E E E E E E
|-----------------|-----------------|-----------------|------------------||
|-----------------|-----------------|-----------------|-----------------o||
|-5-5-5-5-5-5-5-5-|-5-5-5-5-5-5-5-5-|-----------------|------------------||
|-5-5-5-5-5-5-5-5-|-5-5-5-5-5-5-5-5-|-5-5-5-5-5-5-5-5-|-3-3-3-3-3-3-3-3--||
|-3-3-3-3-3-3-3-3-|-3-3-3-3-3-3-3-3-|-5-5-5-5-5-5-5-5-|-3-3-3-3-3-3-3-3-o||
|-----------------|-----------------|-3-3-3-3-3-3-3-3-|-1-1-1-1-1-1-1-1--||


  E E E E  E E E E     E E E E   E E E E      E E E E  E E E E
|-------------------|----------------------|-------------------|
|-------------------|----------------------|-------------------|
|-5-5-5-5--5-5-5-5--|--5-5-5-5---5-5-5-5---|-------------------|
|-5-5-5-5--5-5-5-5--|--5-5-5-5---5-5-5-5---|--5-5-5-5--5-5-5-5-|
|-3-3-3-3--3-3-3-3--|--3-3-3-3---3-3-3-3---|--5-5-5-5--5-5-5-5-|
|-------------------|----------------------|--3-3-3-3--3-3-3-3-|


  PM|     PM|
  E E E   E E E     E E  E E   E E  E E   E E  E E  E E  E E
|-----------------|---------------------|--------------------|
|-----------------|---------------------|--------------------|
|-----------------|-5-5--5-5---5-5--5-5-|-5-5--5-5--5-5--5-5-|
|-----3-------3---|-5-5--5-5---5-5--5-5-|-5-5--5-5--5-5--5-5-|
|-----3-------3---|-3-3--3-3---3-3--3-3-|-3-3--3-3--3-3--3-3-|
|-1-1-1---1-1-1---|---------------------|--------------------|


                    PM|     PM|      PM|    PM|
  E E E E E E E E   E E E   E E E    E E E  E E E    E
|-----------------|----------------|---------------|------|
|-----------------|----------------|---------------|------|
|-----------------|----------------|---------------|-5----|
|-5-5-5-5-5-5-5-5-|-----3-------3--|-----3------3--|-5----|
|-5-5-5-5-5-5-5-5-|-----3-------3--|-----3------3--|-3----|
|-3-3-3-3-3-3-3-3-|-1-1-1---1-1-1--|-1-1-1--1-1-1--|------|
Comments