Blink 182 - All The Small Things Live Chords & Tabs

 

All The Small Things Live Chords & Tabs

Blink 182 Chords & Tabs

Version: 9 Type: Tab 0 ratings
1 star 2 stars 3 stars 4 stars 5 stars
comments

All The Small Things Live Tab

   
Artist: Blink 182
Song: All The Small Things
Album: The Mark, Tom, And Travis Show

Alright here is the right version for this great song

Intro
e|---------------|
B|---------------|
G|--5~-----------|
D|--5~------5-3--|
A|--3~------5-3--|
E|----------3-1--|

e|---------------------------------------------|
B|---------------------------------------------|
G|-5555555-101010101010------------------------| 2x
D|-5555555-101010101010--555555555-3333-3-3----|
A|-3333333-8-8-8-8-8-8---555555555-3333-3-3----|
E|-----------------------333333333-1111-1-1----|
                                   ****
Verse
e|----------------------------------|
B|----------------------------------|
G|-5555555--------------------------|   4x
D|-5555555-5555555-3333333-5555555--|
A|-3333333-5555555-3333333-5555555--|
E|---------3333333-1111111-3333333--|
   ******* ******* ******* *******

e|-----|
B|-----|
G|-55~-|      
D|-55~-|
A|-33~-|
E|-----|

Chorus
e|----------------------------------|
B|----------------------------------|
G|-55555555555555-------------------|
D|-55555555555555-5555555-3333333---| x2
A|-33333333333333-5555555-3333333---|
E|----------------3333333-1111111---|
[ Tab from: http://www.guitartabs.cc/tabs/b/blink_182/all_the_small_things_live_tab_ver_9.html ]
Then
e|-------------------------------------------|
B|-------------------------------------------|
G|-5555555-10101010-77777-7777777------------|
D|-5555555-8-8-8-8--77777-7777777---3333-3-3-| 2x
A|-3333333-8-8-8-8--99999-5555555---3333-3-3-|
E|----------------------------------1111-1-1-|
                                    ****
Verse
e|----------------------------------|
B|----------------------------------|
G|-5555555--------------------------|   2x
D|-5555555-5555555-3333333-5555555--|
A|-3333333-5555555-3333333-5555555--|
E|---------3333333-1111111-3333333--|
   ******* ******* ******* *******

e|-----|
B|-----|
G|-55~-|      
D|-55~-|
A|-33~-|
E|-----|

Chorus
e|----------------------------------|
B|----------------------------------|
G|-55555555555555-------------------|
D|-55555555555555-5555555-3333333---| x2
A|-33333333333333-5555555-3333333---|
E|----------------3333333-1111111---|

Bridge
e|-----------------------------|
B|-----------------------------|
G|--5--5--5--5--4--4--7--7-----|
D|----5--5--5--5--5--5--5--5---| x2
A|-----------------------------|
E|-----------------------------|
    * ** ** ** ** ** ** ** *
e|----------------------------------------------------|
B|----------------------------------------------------|
G|--5--5--5--5--5--5--5--5---7-7-7-7---9-9-9-9--------|
D|----5--5--5--5--5--5--5--5--7-7-7-7---9-9-9-9-------| 
A|----------------------------------------------------|
E|----------------------------------------------------|

Chorus
e|----------------------------------|
B|----------------------------------|
G|-55555555555555-------------------|
D|-55555555555555-5555555-3333333---| x2
A|-33333333333333-5555555-3333333---|
E|----------------3333333-1111111---|

Outro
e|----------------------------------|
B|----------------------------------|
G|-55555555555555-------------------|
D|-55555555555555-5555555-333333----|
A|-33333333333333-5555555-333333----|
E|----------------3333333-111111----|
                          ** ** 
e|---------------------------------------|
B|---------------------------------------|
G|-55555555555555------------------------|
D|-55555555555555-5555555-333333333333---|
A|-33333333333333-5555555-333333333333---|
E|----------------3333333-111111111111---|
                          ** ** ** **
end on
e|---|
B|---|
G|-5-|
D|-5-|
A|-3-|
E|---|
Comments