Blink 182 - All The Small Things Live Chords & Tabs

 

All The Small Things Live Chords & Tabs

Blink 182 Chords & Tabs

Version: 6 Type: Tab 0 ratings
1 star 2 stars 3 stars 4 stars 5 stars
comments

All The Small Things Live Tab

All The Small Things (live) by Blink-182. Album: Mark, Tom & Travis Show(2000)
Any Questions Comments send me to briets@email.ru
:
# Intro #  play X2  ()=paly only first time   P-M=palm=mute  *=play X6!
E--------------------------------------|
B---------*------*---------------------|
G--------5------5-------*-----P-M------|
D--(53)--5------3------5------333-333--|
A--(53)--3-------------5------333-333--|
E--(31)----------------3------111-111--|
>
# Verse #   *=play X6 with palm-mute!  (Say it aint so i will...)  
E---------------X4--------------------|--------------------| 
B---*---------------------------------|--------------------|
G--5-------*------*------*------------|--5-----------------|
D--5------5------3------5-------------|--5-------pick-slide|
A--3------5------3------5-------------|--3-------<<<<<<<<<<|
E---------3------1------3-------------|----------<<<<<<<<<<|
>
# Chorus #  play X2   *=play X6
E------------------------------|
B---*------*-------------------|
G--5------5-------*------*-----|
D--5------5------5------3------|
A--3------3------5------3------|
E----------------3------1------|
>
# Pre-verse #  play X2 
E------------------------------------------------|
B------------------------------------------------|
G--55555555510101010-9999-9107-77777777-P-M------|
D--55555555510101010-9999-9107-77777777-333-333--|
A--333333333-8-8-8-8-7777-7-85-55555555-333-333--|
E---------------------------------------111-111--|
>
Play # Verse # X2, # Chorus # X2
>
# Bridge #    ()=guitar clean!                  *=play X6 with palm-mute!      
E------------------------|--------------------->---------------------------|
B------------------------|--------X4----------->---*------*----------------|
G--5------(7)------(10)--|--5-5-5-5-4-4-7-7---->--5------5-------*------*--|
D--5------(7)------(10)--|---5-5-5-5-5-5-5-5--->--5------5------5------3---|
A--3------(5)------(-8)--|--\-----P-M------/--->--3------3------5------3---|
E------------------------|--------------------->----------------3------1---|
>
Play # Chorus # X2
>
# Outro #   PM=palm-mute  *=play X6  %=pause!  /=slide!
E--------------------------------------------------------------------------------------------|
B---*------*----------------------------*------*---------------------------------------------|
G--5------5-------*-----PM---PM--------5------5-------*-----PM---PM---PM---PM---5---------5/-|
D--5------5------5------33-3-33-3------5------5------5------33-3-33-3-33-3-33-3-5-(DRUMS)-5/-|
A--3------3------5------33-3-33-3------3------3------5------33-3-33-3-33-3-33-3-3---------3/-|
E----------------3------11-1-11-1--------------------3------11-1-11-1-11-1-11-1---%%%%%%%%---|
:
:
Tabbed by Briets(Andrei).
[ Tab from: http://www.guitartabs.cc/tabs/b/blink_182/all_the_small_things_live_tab_ver_6.html ]
Comments