Blink 182 - All The Small Things Chords & Tabs

 

All The Small Things Chords & Tabs

Blink 182 Chords & Tabs

Version: 6 Type: Bass Tab 0 ratings
1 star 2 stars 3 stars 4 stars 5 stars
comments

All The Small Things Bass Tab

   
Song: All the Small things
Band: Blink-182 
Album: Enema of the state
Tabbed by: Carl Kissack (red_smoke22@hotmail.com

x means palm mute
h means hammer on

The first 2 notes are:
G|-----|
D|-----|
A|-----|
E|-3h1-|

G|------------------------------------|
D|----------33333333------------------| *2
A|-33333333---------------------------|
E|-------------------33333333-xxxx-11-|

G|------------------------------------|
D|------------------------------------| *4 (all the small things....comiserating)
A|-33333333---------------------------|
E|---------33333333-11111111-33333333-|

G|------------------------------------|
D|------------------------------------| *3 (say it aint so......)
A|-3333333333333333-------------------|
E|------------------33333333-11111111-|

G|------------------------------------|
D|----------33332222-00000000---------| *2
A|-33333333---------------------------|
E|----------------------------xxxx-11-|
[ Tab from: http://www.guitartabs.cc/tabs/b/blink_182/all_the_small_things_btab_ver_6.html ]
G|------------------------------------|
D|------------------------------------| *2 (late night come home.......let me know
A|-33333333---------------------------|     she cares)
E|---------33333333-11111111-33333333-|

G|------------------------------------|
D|------------------------------------| *3
A|-3333333333333333-------------------|
E|------------------33333333-11111111-|

Break

G|------------------------------------|
D|------------------------------------| *4
A|-3333333333333333-------------------|
E|------------------33333333-11111111-|

G|---------------------------|
D|---------------------------| *1
A|-3333333333333333----------|
E|------------------33333333-|

G|----------|
D|----------| *2 (turn the lights off carry me home)
A|-3--------|
E|----3---1-|

G|---------------------------|
D|---------------------------| *1 (keep ur head still..be your thrill)
A|-3333333333333333----------|
E|------------------33333333-|

G|----------|
D|----------| *4 (the night will go on the night will go on my little windmill)
A|-3--------|
E|----3---1-|

Last Note is C (A|-3-|)
Comments