Blink 182 - Aliens Exist Chords & Tabs

 

Aliens Exist Chords & Tabs

Blink 182 Chords & Tabs

Version: 5 Type: Tab 0 ratings
1 star 2 stars 3 stars 4 stars 5 stars
comments

Aliens Exist Tab

   
blink 182    Aliens exist.
Tabbed by crackrabbit  Crackrabbit@aol.
  
song-aliens exist    s=pick scrape
artist-blink 182     Palm mute=
by crackrabbit15 /For guitar

g--------------------------------------------------- d---------------------------------------------------
a-2-2-2-2-2-2-2-2-2-2-2-2-2-1-1-1-2-let ring
e---------------------------------------------------
[ Tab from: http://www.guitartabs.cc/tabs/b/blink_182/aliens_exist_tab_ver_5.html ]
g---------4--4-4-4--4--4----------------------------
d---------4--4-4-4--4--4--2-2--2--2--2-6-6-6-6--6-6-6
a---------2--2-2-2--2--2--2-2--2--2--2-6-6-6-6--6-6-6
e-xxxxxxx-----------------0-0--0--0--0-4-4-4-4--4-4-4
                               p.m===================
g-----------------------------4----------------------
d-2-2--2--2-2-2---------------4----------------------
a-2-2--2--2-2-2-(2xthen this)-2-2-2-2-2-2-0----------
e-0-0--0--0-0-0----------------------------2-2-2-2-2-
Part b verse
=======================================
d--------------------------------------------------
a--------------------------------------(2xthen this)
e-2-2-2-4-4-4-4-4-4-4-4-0-0-0-0-0-0-0-0-(below)----
  ===================================================
d----------------------------------------------------
a-2-2-2-2-2-2-2-2-4-4-4-4-4-4-4-0--------------------
e--------------------------------4-4-4-4-4-4-4-4-0-0-
=============                  chorus below
d-----------------------------7--7-7-7-7-7-7--7--7-7-7
a-----------------------------x--x-x-x-x-x-x--x--x-x-x
e-0-0-0-0-0-0-(nowplaypartB1x)9--9-9-9-9-9-9--9--9-9-9
cont.
d-7-7-7-7-7\4--4-4-4-4-4-4--4--4-4-4-4-4
a-x-x-x-x-x\4--4-4-4-4-4-4--4--4-4-4-4-4(2xThenRepeat)
e-9-9-9-9-9\2--2-2-2-2-2-2--2--2-2-2-2-2(all)
=================  solo Guitar 2 Below   
d-1-1-----2-2-----@-------+4                         a----2(4x)---2(4x)@-----2-+x(keep playing even when)  
e-----------------@-2-0---+2(guitar 2 comes in)
 Guitar 2 in solo    
g-8--8--8-8-8-8-8--8--8-8-8-8-8/6-6-6-6-6-6-6--6-6-6
d-x--x--x-x-x-x-x--x--x-x-x-x-x/x-x-x-x-x-x-x--x-x-x
a-6--6--6-6-6-6-6--6--6-6-6-6-6/4-4-4-4-4-4-4--4-4-4
e---------------------------------------------------

g-6-6-6-6/9-9-9--9-9-9--9-9-9-9-9-9-9/6-6-6-6--6-6-6
d-x-x-x-x/x-x-x--x-x-x--x-x-x-x-x-x-x/x-x-x-x--x-x-x
a-4-4-4-4/7-7-7--7-7-7--7-7-7-7-7-7-7/8-8-8-8--8-8-8
e---------------------------------------------------
           Dark and scary below 
g--6-6-6/4------------------------------------------
d--x-x-x/x--6--6-6-6--6-6--6-6-6--6-4--4-4-4--4--4--
a--8-8-8/6--6--6-6-6--6-6--6-6-6--6-4--4-4-4--4--4--
e-----------4--4-4-4--4-4--4-4-4--4-2--2-2-2--2--2--

g-------------------------------4--4-4-4--4-------
d-4-4-4--4-2--2-2-2--2--2-2-2-2-4--4-4-4--4--4--4-4
a-4-4-4--4-2--2-2-2--2--2-2-2-2-2--2-2-2--2--4--4-4
e-2-2-2--2-0--0-0-0--0--0-0-0-0--------------2--2-2 

g-----------------------------
d-4--4------------------------
a-4--4-(play2x)---------------
e-2--2-(2ndx you playwith solo)

Im not lik you guys only at the end
g---9-4-
d-4-9-4-
a-4-7-2-
e-2-0---(2x)sorry its sloppy and half ass. 
:: Ultimate Guitar Archive :: 
http://www.ultimate-guitar.com 

Comments