Blink 182 - Adams Song Chords & Tabs

 

Adams Song Chords & Tabs

Blink 182 Chords & Tabs

Version: 6 Type: Tab 0 ratings
1 star 2 stars 3 stars 4 stars 5 stars
comments

Adams Song Tab

Artist: Blink-182
Song: Adam’s song
Album: Enema of the State
Tabbed by: Andrew (kraftkid182) (kraftkid87@hotmail.com)	
Tuning: Dropped One Step!!
Allright, I’ve looked all over for correct tabs for this song but there are none, so I’ll just do it myself.

Intro (clean)
D---------------------------------------------------------------------------------------------------------------------------
A---------------------------------------------------------------------------------------------------------------------------
F----------------------------------------------------------------------------------------------------------------------------
C---------4---0-------4---0---------4----0--------4----0--------4----0--------4----0----------4---0--------4-----0---
G----2-----------2--------------0--------------0----------------------------------------------------------------------------
D--------------------------------------------------------------3--------------3--------------0--------------3---------------

Verses (clean)
(Palm muted, play each chord eight times)
D-----------------------------------------------------------------------------------------------------------------------------
A-----------------------------------------------------------------------------------------------------------------------------
F------------------------------------------------------------------------------------------------------------------------------
C--------7--------------4-----------------------------------------------------------------------------------------------------
G--------5-----5-------2-------5----------------------------------------------------------------------------------------------
D--------------3----------------3----------------------------------------------------------------------------------------------
[ Tab from: http://www.guitartabs.cc/tabs/b/blink_182/adams_song_tab_ver_6.html ]
Prechorus (clean)	
Play twice
D-----------------------------------------------------------------------------------------------------------------------------
A------------------------------------------------------------------------------------------------------------------------------
F-----------------0-----------0----------0-----------0------------------------------------------------------------------------
C------------7------------7----------9-----------9-----------4---0-------4---0--------4----0-------4---0------------------
G-------5------------5----------7-----------7-----------2------------2------------------------------------------------------
D-------------------------------------------------------------------------------------3------------3---------------------------

Chorus Pt. 1
(“I never conquered rarely came sixteen…….”) play each chord eight times
D-----------------------------------------------------------------------------------------------------------------------------
A-----------------------------------------------------------------------------------------------------------------------------
F-------------7-----9------------------11----12-----11-----12-------------------------------------------------------------
C------------x-----x----9----5--------x------x------x------x---------------------------------------------------------------
G------------5-----7----x----x--------9-----10-----9------10--------------------------------------------------------------
D------------------------7----3------------------------------------------------------------------------------------------------

Chorus Pt. 2
(“The world was wide, to late to try……”) play each chord eight times
D-------------------------------------------------------------------------------------------------------
A-------------------------------------------------------------------------------------------------------
F------7----9------------------------------------------------------------------------------------------
C------7----9---9----5--------------------------------------------------------------------------------
G-----5----7----9----5--------------------------------------------------------------------------------
D---------------7-----3---------------------------------------------------------------------------------

That’s pretty much it. I think you can figure out the song order yourself Questions, comments, whatever, email me…….
Comments