Blink 182 - Adams Song Chords & Tabs

 

Adams Song Chords & Tabs

Blink 182 Chords & Tabs

Version: 4 Type: Tab 3 ratings
1 star 2 stars 3 stars 4 stars 5 stars
comments

Adams Song Tab

Guitar Tab by: Sam Glenn (xaelksx@yahoo.com)

INTRO standard tuning
E|------------|--------------|--------------------------|
B|------------|--------------|--------------------------|
G|------------|--------------|--------------------------|
D|--2------2--|--2------2----|--2------2------2------2--|
A|0---3--0---3|----3------3--|----3------3------3------3|
E|------------|5------5------|3------3------0------3----|
[ Tab from: http://www.guitartabs.cc/tabs/b/blink_182/adams_song_tab_ver_4.html ]
VERSE standard tuning
E|----------------|----------------|----------------|----------------|
B|----------------|----------------|----------------|----------------|
G|----------------|----------------|----------------|----------------|
D|2-2-2-2-2-2-2-2-|----------------|----------------|----------------|
A|3-3-3-3-3-3-3-3-|3-3-3-3-3-3-3-3-|7-7-7-7-7-7-7-7-|3-3-3-3-3-3-3-3-|
E|----------------|3-3-3-3-3-3-3-3-|7-7-7-7-7-7-7-7-|3-3-3-3-3-3-3-3-|

That's all I have so far. I will put chorus when I figure it out.
Thanks.
Comments