Blink 182 - Adams Song Chords & Tabs

 

Adams Song Chords & Tabs

Blink 182 Chords & Tabs

Version: 19 Type: Tab 0 ratings
1 star 2 stars 3 stars 4 stars 5 stars
comments

Adams Song Tab

Adam's Song.
Tabbed by Mark Waldron mark35@lasvegas.com.
  
------------------------------------------------------
------------------------------------------------------
------------------------------------------------------
--4-0---4-0---4-0---4-0---4-0---4-0---4-0---4-0-------
2-----2-----0-----0-----------------------------------
------------------------3-----3-----0-----3-----------
x2

------------------------------------------------------
------------------------------------------------------
------------------------------------------------------
------------------------------------------------------
55555555----------------------------------------------
--------33333333-77777777-33333333--------------------
x4

------------------------------------------------------
------------------------------------------------------
------------------------------------------------------
-7-5--7-5--9-5--9-5--4-0--4-0--4-0--4-0---------------
5-----5----7----7----2----2----0----0-----------------
------------------------------------------------------
x2

------------------------------------------------------
------------------------------------------------------
------------------------------------------------------
------------------------------------------------------
11-11-11-11-x2-12-12-12-12-x2-11-11-11-11-x2-55555555-
------------------------------------------------------
x2


------------------------------------------------------
------------------------------------------------------
------------------------------------------------------
------------------------------------------------------
11-11-11-11-x2-12-12-12-12-x2-11-11-11-11-x2-55555555-
11-11-11-11-x2-12-12-12-12-x2-11-11-11-11-x2-55555555-
x2



------------------------------------------------------
------------------------------------------------------
------------------------------------------------------
--4-0--4-0--4-0--4-0--4-0--4-0--4-0--4-0--------------
2-----2----0----0-------------------------------------
---------------------3----3----0----3-----------------
x2
[ Tab from: http://www.guitartabs.cc/tabs/b/blink_182/adams_song_tab_ver_19.html ]
------------------------------------------------------
------------------------------------------------------
------------------------------------------------------
------------------------------------------------------
55555555----------------------------------------------
--------33333333-77777777-33333333--------------------
x4



------------------------------------------------------
------------------------------------------------------
------------------------------------------------------
------------------------------------------------------
11-11-11-11-x2-12-12-12-12-x2-11-11-11-11-x2-55555555-
------------------------------------------------------

x2

------------------------------------------------------
------------------------------------------------------
------------------------------------------------------
------------------------------------------------------
11-11-11-11-x2-12-12-12-12-x2-11-11-11-11-x2-55555555-
11-11-11-11-x2-12-12-12-12-x2-11-11-11-11-x2-55555555-

x2


------------------------------------------------------
------------------------------------------------------
------------------------------------------------------
------------------------------------------------------
----3-5-3-3-5-3-8-7-3-----3-----3-5----3-5---7-8-3----
3-3-------------------3-3---3-3-----3-3----3----------


------------------------------------------------------
------------------------------------------------------
------------------------------------------------------
2-3-2-3-2-3-2-3-2-3-2-3-2-3-2-3-2-3-2-3---------------
------------------------------------------------------
------------------------------------------------------
x2



------------------------------------------------------
4-4-4-4-4-4-4-4-4-4-4-4-4-4-4-4-4-4-4-4---------------
------------------------------------------------------
------------------------------------------------------
------------------------------------------------------
------------------------------------------------------
x2



------------------------------------------------------
------------------------------------------------------
------------------------------------------------------
------------------------------------------------------
11-11-11-11-x2-12-12-12-x2-11-11-11-11-x2-55555555----
11-11-11-11-x2-12-12-12-x2-11-11-11-11-x2-55555555----
x4 

:: Ultimate Guitar Archive :: 
http://www.ultimate-guitar.com
Comments