Blink 182 - Adams Song Chords & Tabs

 

Adams Song Chords & Tabs

Blink 182 Chords & Tabs

Version: 17 Type: Tab 0 ratings
1 star 2 stars 3 stars 4 stars 5 stars
comments

Adams Song Tab

   
                              Adams Song!


Hey, Its Kakilla Again, I know the last Adams Song was confusing, so here it is 
again, the right verson, from the book but less confusing. If you look in the book 
you will clearly see that there is 4 guitars plus an extra guitar that is suppost 
to be the piano.  To everyone who complaint, there is 5 guitars and if u dont believe 
me.  Dont give me shit, go look at the Enema of the state offical tabliture booklet on 
page 34 and u will see that i am right!!!!!!!!

          E5                   D5                   B5                   G5
      2 2 2 x x x          0 0 0 x x x          x 2 4 4 x x          5 5 5 x x x

      D5(type 2)
      x 5 7 7 x x

   4/4
    Gtr I
||----------------|---------------|---------------|----------------||
||o---------------|---------------|---------------|---------------o||
||----------------|---------------|---------------|----------------||
||----4-0----4-0--|---4-0----4-0--|---4-0----4-0--|---4-0----4-0---||
||o-2------2------|-0------0------|---------------|---------------o||
||----------------|---------------|-3------3------|-0------2-------||


    Gtrs I, II
                                                                            4x
||------------------|-----------------|-----------------|-------------------||
||o-----------------|-----------------|-----------------|------------------o||
||------------------|-----------------|-----------------|-------------------||
||--4-4-4-4-4-4-4-4-|-----------------|-----------------|-------------------||
||o-5-5-5-5-5-5-5-5-|-5-5-5-5-5-5-5-5-|-9-9-9-9-9-9-9-9-|-5-5-5-5-5-5-5-5--o||
||------------------|-3-3-3-3-3-3-3-3-|-7-7-7-7-7-7-7-7-|-3-3-3-3-3-3-3-3---||


    Gtr I
||----------------|---------------|---------------|-----------------||
||o---------------|---------------|---------------|----------------o||
||------0------0--|-----0------0--|---------------|-----------------||
||----7------7----|---9------9----|---4-0----4-0--|---4-0----4-0----||
||o-5------5------|-7------7------|-2------2------|----------------o||
||----------------|---------------|---------------|-3------3--------||


  Gtrs I, II
|-----------------|-----------------|-----------------|-----------------|
|-----------------|-----------------|-----------------|-----------------|
|-7-7-7-7-7-7-7-7-|-9-9-9-9-9-9-9-9-|-4-4-4-4-4-4-4-4-|-----------------|
|-x-x-x-x-x-x-x-x-|-x-x-x-x-x-x-x-x-|-x-x-x-x-x-x-x-x-|-5-5-5-5-5-5-5-5-|
|-5-5-5-5-5-5-5-5-|-7-7-7-7-7-7-7-7-|-2-2-2-2-2-2-2-2-|-x-x-x-x-x-x-x-x-|
|-----------------|-----------------|-----------------|-3-3-3-3-3-3-3-3-|


  Gtr II
|-------------------------|-------------------------|
|-------------------------|-------------------------|
|-11-11-11-11-11-11-11-11-|-12-12-12-12-12-12-12-12-|
|--x--x--x--x--x--x--x--x-|--x--x--x--x--x--x--x--x-|
|--9--9--9--9--9--9--9--9-|-10-10-10-10-10-10-10-10-|
|-------------------------|-------------------------|
|
| Gtr I
|-------------------------|-------------------------|
|-------------------------|-------------------------|
|--7--7--7--7--7--7--7--7-|--9--9--9--9--9--9--9--9-|
|--x--x--x--x--x--x--x--x-|--x--x--x--x--x--x--x--x-|
|--5--5--5--5--5--5--5--5-|--7--7--7--7--7--7--7--7-|
|-------------------------|-------------------------|


|-------------------------|-------------------------|
|-------------------------|-------------------------|
|-11-11-11-11-11-11-11-11-|-12-12-12-12-12-12-12-12-|
|--x--x--x--x--x--x--x--x-|--x--x--x--x--x--x--x--x-|
|--9--9--9--9--9--9--9--9-|-10-10-10-10-10-10-10-10-|
|-------------------------|-------------------------|
|
|-------------------------|-------------------------|
|-------------------------|-------------------------|
|--4--4--4--4--4--4--4--4-|-------------------------|
|--x--x--x--x--x--x--x--x-|--5--5--5--5--5--5--5--5-|
|--2--2--2--2--2--2--2--2-|--x--x--x--x--x--x--x--x-|
|-------------------------|--3--3--3--3--3--3--3--3-|


  D5                        E5
  Gtr IV
   |  |  |  |  |  |  |  |    |  |  |  |  |  |  |  |
   /  /  /  /  /  /  /  /    /  /  /  /  /  /  /  /

  Gtr III
|-17-17-17-17-17-17-17-17-|-15-15-15-15-15-15-15-15-|
|--x--x--x--x--x--x--x--x-|--x--x--x--x--x--x--x--x-|
|-14-14-14-14-14-14-14-14-|-12-12-12-12-12-12-12-12-|
|-------------------------|-------------------------|
|-------------------------|-------------------------|
|-------------------------|-------------------------|
|
| Gtr II
|-------------------------|-------------------------|
|-------------------------|-------------------------|
|-11-11-11-11-11-11-11-11-|-12-12-12-12-12-12-12-12-|
|--x--x--x--x--x--x--x--x-|--x--x--x--x--x--x--x--x-|
|--9--9--9--9--9--9--9--9-|-10-10-10-10-10-10-10-10-|
|-------------------------|-------------------------|
|
| Gtr III
|-------------------------|-------------------------|
|-------------------------|-------------------------|
|--7--7--7--7--7--7--7--7-|--9--9--9--9--9--9--9--9-|
|--x--x--x--x--x--x--x--x-|--x--x--x--x--x--x--x--x-|
|--5--5--5--5--5--5--5--5-|--7--7--7--7--7--7--7--7-|
|-------------------------|-------------------------|


  B5                        G5
   |  |  |  |  |  |  |  |    |  |  |  |  |  |  |  |
   /  /  /  /  /  /  /  /    /  /  /  /  /  /  /  /

|-14-14-14-14-14-14-14-14-|-15-15-15-15-15-15-15-15-|
|--x--x--x--x--x--x--x--x-|--x--x--x--x--x--x--x--x-|
|-10-10-10-10-10-10-10-10-|-12-12-12-12-12-12-12-12-|
|-------------------------|-------------------------|
|-------------------------|-------------------------|
|-------------------------|-------------------------|
|
|-------------------------|-------------------------|
|-------------------------|-------------------------|
|-11-11-11-11-11-11-11-11-|--7--7--7--7--7--7--7--7-|
|--x--x--x--x--x--x--x--x-|--x--x--x--x--x--x--x--x-|
|--9--9--9--9--9--9--9--9-|--5--5--5--5--5--5--5--5-|
|-------------------------|-------------------------|
|
|-------------------------|-------------------------|
|-------------------------|-------------------------|
|-11-11-11-11-11-11-11-11-|-12-12-12-12-12-12-12-12-|
|--x--x--x--x--x--x--x--x-|--x--x--x--x--x--x--x--x-|
|--9--9--9--9--9--9--9--9-|-10-10-10-10-10-10-10-10-|
|-------------------------|-------------------------|


  D5                        E5
  Gtr IV
   |  |  |  |  |  |  |  |    |  |  |  |  |  |  |  |
   /  /  /  /  /  /  /  /    /  /  /  /  /  /  /  /

  Gtr III
|-17-17-17-17-17-17-17-17-|-15-15-15-15-15-15-15-15-|
|--x--x--x--x--x--x--x--x-|--x--x--x--x--x--x--x--x-|
|-14-14-14-14-14-14-14-14-|-12-12-12-12-12-12-12-12-|
|-------------------------|-------------------------|
|-------------------------|-------------------------|
|-------------------------|-------------------------|
|
| Gtr II
|-------------------------|-------------------------|
|-------------------------|-------------------------|
|-11-11-11-11-11-11-11-11-|-12-12-12-12-12-12-12-12-|
|--x--x--x--x--x--x--x--x-|--x--x--x--x--x--x--x--x-|
|--9--9--9--9--9--9--9--9-|-10-10-10-10-10-10-10-10-|
|-------------------------|-------------------------|
|
| Gtr I
|-------------------------|-------------------------|
|-------------------------|-------------------------|
|--7--7--7--7--7--7--7--7-|--9--9--9--9--9--9--9--9-|
|--x--x--x--x--x--x--x--x-|--x--x--x--x--x--x--x--x-|
|--5--5--5--5--5--5--5--5-|--7--7--7--7--7--7--7--7-|
|-------------------------|-------------------------|


  B5                        G5
   |  |  |  |  |  |  |  |    |  |  |  |  |  |  |  |
   /  /  /  /  /  /  /  /    /  /  /  /  /  /  /  /

|-14-14-14-14-14-14-14-14-|-------------------------|
|--x--x--x--x--x--x--x--x-|-15-15-15-15-15-15-15-15-|
|-10-10-10-10-10-10-10-10-|--x--x--x--x--x--x--x--x-|
|-------------------------|-12-12-12-12-12-12-12-12-|
|-------------------------|-------------------------|
|-------------------------|-------------------------|
|
|-------------------------|-------------------------|
|-------------------------|-------------------------|
|-11-11-11-11-11-11-11-11-|--7--7--7--7--7--7--7--7-|
|--x--x--x--x--x--x--x--x-|--x--x--x--x--x--x--x--x-|
|--9--9--9--9--9--9--9--9-|--5--5--5--5--5--5--5--5-|
|-------------------------|-------------------------|
|
|-------------------------|-------------------------|
|-------------------------|-------------------------|
|-11-11-11-11-11-11-11-11-|-12-12-12-12-12-12-12-12-|
|--x--x--x--x--x--x--x--x-|--x--x--x--x--x--x--x--x-|
|--9--9--9--9--9--9--9--9-|-10-10-10-10-10-10-10-10-|
|-------------------------|-------------------------|


    Gtr I
||----------------|---------------|---------------|-----------------||
||o---------------|---------------|---------------|----------------o||
||----------------|---------------|---------------|-----------------||
||----4-0----4-0--|---4-0----4-0--|---4-0----4-0--|---4-0----4-0----||
||o-2------2------|-0------0------|---------------|----------------o||
||----------------|---------------|-3------3------|-0------2--------||


    Gtrs I, II
                                                                            4x
||------------------|-----------------|-----------------|-------------------||
||o-----------------|-----------------|-----------------|------------------o||
||------------------|-----------------|-----------------|-------------------||
||--4-4-4-4-4-4-4-4-|-----------------|-----------------|-------------------||
||o-5-5-5-5-5-5-5-5-|-5-5-5-5-5-5-5-5-|-9-9-9-9-9-9-9-9-|-5-5-5-5-5-5-5-5--o||
||------------------|-3-3-3-3-3-3-3-3-|-7-7-7-7-7-7-7-7-|-3-3-3-3-3-3-3-3---||


    Gtr I
||----------------|---------------|---------------|-----------------||
||o---------------|---------------|---------------|----------------o||
||------0------0--|-----0------0--|---------------|-----------------||
||----7------7----|---9------9----|---4-0----4-0--|---4-0----4-0----||
||o-5------5------|-7------7------|-2------2------|----------------o||
||----------------|---------------|---------------|-3------3--------||


  Gtrs I, II
|-----------------|-----------------|-----------------|-----------------|
|-----------------|-----------------|-----------------|-----------------|
|-7-7-7-7-7-7-7-7-|-9-9-9-9-9-9-9-9-|-4-4-4-4-4-4-4-4-|-----------------|
|-x-x-x-x-x-x-x-x-|-x-x-x-x-x-x-x-x-|-x-x-x-x-x-x-x-x-|-5-5-5-5-5-5-5-5-|
|-5-5-5-5-5-5-5-5-|-7-7-7-7-7-7-7-7-|-2-2-2-2-2-2-2-2-|-x-x-x-x-x-x-x-x-|
|-----------------|-----------------|-----------------|-3-3-3-3-3-3-3-3-|


  Gtr II
|-------------------------|-------------------------|
|-------------------------|-------------------------|
|-11-11-11-11-11-11-11-11-|-12-12-12-12-12-12-12-12-|
|--x--x--x--x--x--x--x--x-|--x--x--x--x--x--x--x--x-|
|--9--9--9--9--9--9--9--9-|-10-10-10-10-10-10-10-10-|
|-------------------------|-------------------------|
|
| Gtr I
|-------------------------|-------------------------|
|-------------------------|-------------------------|
|--7--7--7--7--7--7--7--7-|--9--9--9--9--9--9--9--9-|
|--x--x--x--x--x--x--x--x-|--x--x--x--x--x--x--x--x-|
|--5--5--5--5--5--5--5--5-|--7--7--7--7--7--7--7--7-|
|-------------------------|-------------------------|


|-------------------------|-------------------------|
|-------------------------|-------------------------|
|-11-11-11-11-11-11-11-11-|-12-12-12-12-12-12-12-12-|
|--x--x--x--x--x--x--x--x-|--x--x--x--x--x--x--x--x-|
|--9--9--9--9--9--9--9--9-|-10-10-10-10-10-10-10-10-|
|-------------------------|-------------------------|
|
|-------------------------|-------------------------|
|-------------------------|-------------------------|
|--4--4--4--4--4--4--4--4-|-------------------------|
|--x--x--x--x--x--x--x--x-|--5--5--5--5--5--5--5--5-|
|--2--2--2--2--2--2--2--2-|--x--x--x--x--x--x--x--x-|
|-------------------------|--3--3--3--3--3--3--3--3-|


  D5                        E5
  Gtr IV
   |  |  |  |  |  |  |  |    |  |  |  |  |  |  |  |
   /  /  /  /  /  /  /  /    /  /  /  /  /  /  /  /
[ Tab from: http://www.guitartabs.cc/tabs/b/blink_182/adams_song_tab_ver_17.html ]
  Gtr III
|-17-17-17-17-17-17-17-17-|-15-15-15-15-15-15-15-15-|
|--x--x--x--x--x--x--x--x-|--x--x--x--x--x--x--x--x-|
|-14-14-14-14-14-14-14-14-|-12-12-12-12-12-12-12-12-|
|-------------------------|-------------------------|
|-------------------------|-------------------------|
|-------------------------|-------------------------|
|
| Gtr II
|-------------------------|-------------------------|
|-------------------------|-------------------------|
|-11-11-11-11-11-11-11-11-|-12-12-12-12-12-12-12-12-|
|--x--x--x--x--x--x--x--x-|--x--x--x--x--x--x--x--x-|
|--9--9--9--9--9--9--9--9-|-10-10-10-10-10-10-10-10-|
|-------------------------|-------------------------|
|
| Gtr I
|-------------------------|-------------------------|
|-------------------------|-------------------------|
|--7--7--7--7--7--7--7--7-|--9--9--9--9--9--9--9--9-|
|--x--x--x--x--x--x--x--x-|--x--x--x--x--x--x--x--x-|
|--5--5--5--5--5--5--5--5-|--7--7--7--7--7--7--7--7-|
|-------------------------|-------------------------|


  B5                        G5
   |  |  |  |  |  |  |  |    |  |  |  |  |  |  |  |
   /  /  /  /  /  /  /  /    /  /  /  /  /  /  /  /

|-14-14-14-14-14-14-14-14-|-15-15-15-15-15-15-15-15-|
|--x--x--x--x--x--x--x--x-|--x--x--x--x--x--x--x--x-|
|-10-10-10-10-10-10-10-10-|-12-12-12-12-12-12-12-12-|
|-------------------------|-------------------------|
|-------------------------|-------------------------|
|-------------------------|-------------------------|
|
|-------------------------|-------------------------|
|-------------------------|-------------------------|
|-11-11-11-11-11-11-11-11-|-12-12-12-12-12-12-12-12-|
|--x--x--x--x--x--x--x--x-|--x--x--x--x--x--x--x--x-|
|--9--9--9--9--9--9--9--9-|-10-10-10-10-10-10-10-10-|
|-------------------------|-------------------------|
|
|-------------------------|-------------------------|
|-------------------------|-------------------------|
|-11-11-11-11-11-11-11-11-|-12-12-12-12-12-12-12-12-|
|--x--x--x--x--x--x--x--x-|--x--x--x--x--x--x--x--x-|
|--9--9--9--9--9--9--9--9-|-10-10-10-10-10-10-10-10-|
|-------------------------|-------------------------|


  D5                        E5
  Gtr IV
   |  |  |  |  |  |  |  |    |  |  |  |  |  |  |  |
   /  /  /  /  /  /  /  /    /  /  /  /  /  /  /  /

  Gtr III
|-17-17-17-17-17-17-17-17-|-15-15-15-15-15-15-15-15-|
|--x--x--x--x--x--x--x--x-|--x--x--x--x--x--x--x--x-|
|-14-14-14-14-14-14-14-14-|-12-12-12-12-12-12-12-12-|
|-------------------------|-------------------------|
|-------------------------|-------------------------|
|-------------------------|-------------------------|
|
| Gtr II
|-------------------------|-------------------------|
|-------------------------|-------------------------|
|-11-11-11-11-11-11-11-11-|-12-12-12-12-12-12-12-12-|
|--x--x--x--x--x--x--x--x-|--x--x--x--x--x--x--x--x-|
|--9--9--9--9--9--9--9--9-|-10-10-10-10-10-10-10-10-|
|-------------------------|-------------------------|
|
| Gtr I
|-------------------------|-------------------------|
|-------------------------|-------------------------|
|--7--7--7--7--7--7--7--7-|--9--9--9--9--9--9--9--9-|
|--x--x--x--x--x--x--x--x-|--x--x--x--x--x--x--x--x-|
|--5--5--5--5--5--5--5--5-|--7--7--7--7--7--7--7--7-|
|-------------------------|-------------------------|


  B5                        G5
   |  |  |  |  |  |  |  |    |  |  |  |  |  |  |  |
   /  /  /  /  /  /  /  /    /  /  /  /  /  /  /  /

|-14-14-14-14-14-14-14-14-|-------------------------|
|--x--x--x--x--x--x--x--x-|-15-15-15-15-15-15-15-15-|
|-10-10-10-10-10-10-10-10-|--x--x--x--x--x--x--x--x-|
|-------------------------|-12-12-12-12-12-12-12-12-|
|-------------------------|-------------------------|
|-------------------------|-------------------------|
|
|-------------------------|-------------------------|
|-------------------------|-------------------------|
|-11-11-11-11-11-11-11-11-|-12-12-12-12-12-12-12-12-|
|--x--x--x--x--x--x--x--x-|--x--x--x--x--x--x--x--x-|
|--9--9--9--9--9--9--9--9-|-10-10-10-10-10-10-10-10-|
|-------------------------|-------------------------|
|
|-------------------------|-------------------------|
|-------------------------|-------------------------|
|-11-11-11-11-11-11-11-11-|-12-12-12-12-12-12-12-12-|
|--x--x--x--x--x--x--x--x-|--x--x--x--x--x--x--x--x-|
|--9--9--9--9--9--9--9--9-|-10-10-10-10-10-10-10-10-|
|-------------------------|-------------------------|


  Gtr V
|-----------------|-----------------|-----------------|
|-----------------|-3---------------|-----------3-----|
|-----------------|-----------------|-2-------2-------|
|-0---------------|-----------------|-----------------|
|-----------------|-----------------|-----------------|
|-----------------|-----------------|-----------------|
|
| Gtr I
|-----------------|-----------------|-----------------|
|-----------------|-----------------|-----------------|
|-----0-----0-----|-----0-----0-----|-----0-----0-----|
|---4-----4-----4-|---4-----4-----4-|---4-----4-----4-|
|-5-----5-----5---|-5-----5-----5---|-5-----5-----5---|
|-----------------|-----------------|-----------------|


  Gtr V
|-2---------------|-2---------------|-----------------|----------------|
|---------3-------|-----------------|-3---------------|-----------3----|
|-------------2---|-----------------|-----------------|-2-------2------|
|-----------------|-----------------|-----------------|----------------|
|-----------------|-----------------|-----------------|----------------|
|-----------------|-----------------|-----------------|----------------|
|
| Gtr I
|-----------------|-----------------|-----------------|----------------|
|-----------------|-----------------|-----------------|----------------|
|-----0-----------|-----0---0-------|-----0-----------|----------------|
|---4---0---0---0-|---4-------4---4-|---4-----4---0---|-----2---2---2--|
|-5-------5---5---|-5-----5-----5---|-5-----5---5---5-|---2------------|
|-----------------|-----------------|-----------------|-5-----5---5----|


  Gtr V
|-2-------------|-----------------|
|--------3------|-3---------------|
|------------2--|-----------------|
|---------------|-----------------|
|---------------|-----------------|
|---------------|-----------------|
|
| Gtr I
|---------------|-----------------|
|---------------|-----------------|
|---------------|-----0---0-------|
|-0---4------0--|---4-------4---4-|
|---0------2----|-5-----5-----5---|
|--------5------|-----------------|


  >
|-----------------|----------------|---------------|
|-3---------------|----------------|---------------|
|-----------------|----------------|---------------|
|-----------------|----------------|---------------|
|-----------------|----------------|---------------|
|-----------------|----------------|---------------|
|
|-----------------|----------------|---------------|
|-----------------|----------------|---------------|
|-----0-----------|----------------|---------------|
|---4-----4---0---|-----2----2---2-|-0---4------0--|
|-5-----5---5---5-|---2------------|---0------2----|
|-----------------|-5------5---5---|--------5------|


  Gtr I
|-----------------|-----------------|----------------|----------------|
|-----------------|-----------------|----------------|----------------|
|-----0---0-------|-----0-----------|----------------|-----------0----|
|---4-------4---4-|---4-----4---0---|-----2----2---2-|-0---4---4------|
|-5-----5-----5---|-5-----5---5---5-|---2------------|---5---5-----5--|
|-----------------|-----------------|-5------5---5---|----------------|


    Gtr I
                                       3x
||------------------|------------------||-----------------|------------------|
||o-----------------|-----------------o||-----------------|------------------|
||------7-----7-----|-7-----7-----7----||-----7-----7-----|-7-----7-----7----|
||----0-----0-----0-|-----0-----0---0--||---0-----0-----0-|-----0-----0---0--|
||o-5-----5-----5---|---5-----5-------o||-5-----5-----5---|---5-----5--------|
||------------------|------------------||-----------------|------------------|


    D5                        E5
    Gtr IV
     |  |  |  |  |  |  |  |    |  |  |  |  |  |  |  |
     /  /  /  /  /  /  /  /    /  /  /  /  /  /  /  /

    Gtr III
||--17-17-17-17-17-17-17-17-|-15-15-15-15-15-15-15-15-|
||o--x--x--x--x--x--x--x--x-|--x--x--x--x--x--x--x--x-|
||--14-14-14-14-14-14-14-14-|-12-12-12-12-12-12-12-12-|
||--------------------------|-------------------------|
||o-------------------------|-------------------------|
||--------------------------|-------------------------|
|
|   Gtr II
||--------------------------|-------------------------|
||o-------------------------|-------------------------|
||--11-11-11-11-11-11-11-11-|-12-12-12-12-12-12-12-12-|
||---x--x--x--x--x--x--x--x-|--x--x--x--x--x--x--x--x-|
||o--9--9--9--9--9--9--9--9-|-10-10-10-10-10-10-10-10-|
||--------------------------|-------------------------|
|
|   Gtr I
||--------------------------|-------------------------|
||o-------------------------|-------------------------|
||---7--7--7--7--7--7--7--7-|--9--9--9--9--9--9--9--9-|
||---x--x--x--x--x--x--x--x-|--x--x--x--x--x--x--x--x-|
||o--5--5--5--5--5--5--5--5-|--7--7--7--7--7--7--7--7-|
||--------------------------|-------------------------|


  B5                        G5
   |  |  |  |  |  |  |  |    |  |  |  |  |  |  |  |
   /  /  /  /  /  /  /  /    /  /  /  /  /  /  /  /

                                                      3x
|-14-14-14-14-14-14-14-14-|-15-15-15-15-15-15-15-15---||
|--x--x--x--x--x--x--x--x-|--x--x--x--x--x--x--x--x--o||
|-10-10-10-10-10-10-10-10-|-12-12-12-12-12-12-12-12---||
|-------------------------|---------------------------||
|-------------------------|--------------------------o||
|-------------------------|---------------------------||
|
|                                                     3x
|-------------------------|---------------------------||
|-------------------------|--------------------------o||
|-11-11-11-11-11-11-11-11-|-12-12-12-12-12-12-12-12---||
|--x--x--x--x--x--x--x--x-|--x--x--x--x--x--x--x--x---||
|--9--9--9--9--9--9--9--9-|-10-10-10-10-10-10-10-10--o||
|-------------------------|---------------------------||
|
|                                                     3x
|-------------------------|---------------------------||
|-------------------------|--------------------------o||
|-11-11-11-11-11-11-11-11-|-12-12-12-12-12-12-12-12---||
|--x--x--x--x--x--x--x--x-|--x--x--x--x--x--x--x--x---||
|--9--9--9--9--9--9--9--9-|-10-10-10-10-10-10-10-10--o||
|-------------------------|---------------------------||


  D5                        E5
  Gtr IV
   |  |  |  |  |  |  |  |    |  |  |  |  |  |  |  |
   /  /  /  /  /  /  /  /    /  /  /  /  /  /  /  /

  Gtr III
|-17-17-17-17-17-17-17-17-|-15-15-15-15-15-15-15-15-|
|--x--x--x--x--x--x--x--x-|--x--x--x--x--x--x--x--x-|
|-14-14-14-14-14-14-14-14-|-12-12-12-12-12-12-12-12-|
|-------------------------|-------------------------|
|-------------------------|-------------------------|
|-------------------------|-------------------------|
|
| Gtr II
|-------------------------|-------------------------|
|-------------------------|-------------------------|
|-11-11-11-11-11-11-11-11-|-12-12-12-12-12-12-12-12-|
|--x--x--x--x--x--x--x--x-|--x--x--x--x--x--x--x--x-|
|--9--9--9--9--9--9--9--9-|-10-10-10-10-10-10-10-10-|
|-------------------------|-------------------------|
|
| Gtr I
|-------------------------|-------------------------|
|-------------------------|-------------------------|
|--7--7--7--7--7--7--7--7-|--9--9--9--9--9--9--9--9-|
|--x--x--x--x--x--x--x--x-|--x--x--x--x--x--x--x--x-|
|--5--5--5--5--5--5--5--5-|--7--7--7--7--7--7--7--7-|
|-------------------------|-------------------------|


  B5                        G5
   |  |  |  |  |  |  |  |    |  |  |  |  |  |  |  |
   /  /  /  /  /  /  /  /    /  /  /  /  /  /  /  /

|-14-14-14-14-14-14-14-14-|-------------------------|
|--x--x--x--x--x--x--x--x-|-15-15-15-15-15-15-15-15-|
|-10-10-10-10-10-10-10-10-|--x--x--x--x--x--x--x--x-|
|-------------------------|-12-12-12-12-12-12-12-12-|
|-------------------------|-------------------------|
|-------------------------|-------------------------|
|
|-------------------------|-------------------------|
|-------------------------|-------------------------|
|-11-11-11-11-11-11-11-11-|-12-12-12-12-12-12-12-12-|
|--x--x--x--x--x--x--x--x-|--x--x--x--x--x--x--x--x-|
|--9--9--9--9--9--9--9--9-|-10-10-10-10-10-10-10-10-|
|-------------------------|-------------------------|
|
|-------------------------|-------------------------|
|-------------------------|-------------------------|
|-11-11-11-11-11-11-11-11-|-12-12-12-12-12-12-12-12-|
|--x--x--x--x--x--x--x--x-|--x--x--x--x--x--x--x--x-|
|--9--9--9--9--9--9--9--9-|-10-10-10-10-10-10-10-10-|
|-------------------------|-------------------------|


  D5
  Gtr IV
   |            |
   /            /

  Gtr III
|-17--------|-(17)----*|
|--x--------|--(x)----*|
|-14--------|-(14)----*|
|-----------|---------*|
|-----------|---------*|
|-----------|---------*|
|
| Gtr II
|-----------|---------*|
|-----------|---------*|
|-12--------|-(12)----*|
|--x--------|--(x)----*|
|-10--------|-(10)----*|
|-----------|---------*|
|
| Gtr I
|-----------|---------*|
|-----------|---------*|
|-12--------|-(12)----*|
|--x--------|--(x)----*|
|-10--------|-(10)----*|
|-----------|---------*|
Comments