Blink 182 - Adams Song Chords & Tabs

 

Adams Song Chords & Tabs

Blink 182 Chords & Tabs

Version: 10 Type: Tab 0 ratings
1 star 2 stars 3 stars 4 stars 5 stars
comments

Adams Song Tab

   
Blink 182 - Adams Song.
 Tabbed by Mike, hawker489@aol.com.
  

D-Tuning for guitar(look at a tab to find what to tune)

Intro-Clean
d-----------------------------------------------
A-----------------------------------------------
F-----------------------------------------------
C---4-0-----4-0-----4-0-----4-0-----4-0-----4-0-
G-2-------2-------0-------0---------------------
D---------------------------------3-------3-----

------------------x2
------------------
------------------
---4-0-----4-0----
------------------
-0-------3--------

Verse-Distortion Pedal and Palm Mute
d--------------------------------------x4
A--------------------------------------
F--------------------------------------
C-77777777----------44444444-----------
G-55555555-55555555-22222222-55555555--
D----------33333333----------33333333--

1st Bridge-Clean
d--------------------------------------------------
A--------------------------------------------------
F-----0------0--------0-------0--------------------
C---7------7--------9-------9-------4-0-----4-0----
G-5-------5------/7-------7-------2-------2--------

----------------x2
----------------
----------------
---4-0-----4-0--
----------------
-3------3-------
[ Tab from: http://www.guitartabs.cc/tabs/b/blink_182/adams_song_tab_ver_10.html ]
Pre-Chorus-Clean
d-------------------------------------------------
A-------------------------------------------------
F-------------------------------------------------
C-7-7-7-7-7-7-7-7-9-9-9-9-9-9-9-9-4-4-4-4-4-4-4-4-
G-5-5-5-5-5-5-5-5-7-7-7-7-7-7-7-7-2-2-2-2-2-2-2-2-
D-------------------------------------------------

-------------------------------------------------
-------------------------------------------------
-------------------------------------------------
-----------------6-6-6-6-6-6-6-6-7-7-7-7-7-7-7-7-
-5-5-5-5-5-5-5-5-4-4-4-4-4-4-4-4-5-5-5-5-5-5-5-5-
-3-3-3-3-3-3-3-3---------------------------------

---------------------------------x1
---------------------------------
-6-6-6-6-6-6-6-6-7-7-7-7-7-7-7-7-
-4-4-4-4-4-4-4-4-5-5-5-5-5-5-5-5-
---------------------------------
---------------------------------

Chorus-Distortion Pedal
d-------------------------------------------------
A-------------------------------------------------
F-7-7-7-7-7-7-7-7-9-9-9-9-9-9-9-9-4-4-4-4-4-4-4-4-
C-7-7-7-7-7-7-7-7-9-9-9-9-9-9-9-9-4-4-4-4-4-4-4-4-
G-5-5-5-5-5-5-5-5-7-7-7-7-7-7-7-7-2-2-2-2-2-2-2-2-
D-------------------------------------------------

-----------------x2
-----------------
-----------------
-5-5-5-5-5-5-5-5-
-5-5-5-5-5-5-5-5-
-3-3-3-3-3-3-3-3-

After this repeat it all again.

After you repeat it twice it goes to Chorus at about
3:31 in the song. After that your done. 
:: Ultimate Guitar Archive :: 
http://www.ultimate-guitar.com 



Comments