Blink 182 - Adams Song Chords & Tabs

 

Adams Song Chords & Tabs

Blink 182 Chords & Tabs

Version: 1 Type: Tab 0 ratings
1 star 2 stars 3 stars 4 stars 5 stars
comments

Adams Song Tab

Tabs by: Sam Lowe

Alot of people have this written in standered tuning but there is one 
note that will be to low for that.  So this is a drop d song.  

INTRO
------------------------------------------------------------------
------------------------------------------------------------------
------------------------------------------------------------------
----------2-------------------2------------2----------2--------------
----2----------3----------2--------3----------3---------3---------------
-------------------------------------------------5--------5---------

[ Tab from: http://www.guitartabs.cc/tabs/b/blink_182/adams_song_tab.html ]
------------------------------------------------------------------
------------------------------------------------------------------
------------------------------------------------------------------
-------2--------------2----------------2---------2--------------------
----------3---------------3--------------3---------3------------------
-------------3---------------3------------0----------0----------------
VERSE (PALM MUTED)
------------------------------------------------------------------
------------------------------------------------------------------
------5-----5---------------------------------------------5---5-----
------5-----5-------3---3----------7----7--------3---3----5---5------
------3-----3-------3---3----------7----7--------3---3----3---3------
--------------------3---3----------7----7--------3---3------------

IF YOU REALLY WANT THIS TO SOUND MORE FULL THERE ARE A FEW VARAITIONS
YOU CAN ADD A FOURTH NOT TO DROPED D  SO IT WOULD BE AS FOLLOWS

---------------                                                -
---------------                                                -
----5----------9                                               2                                            
----3----------7                                               2
----3----------7
Comments