Blink 182 - Adams Song Chords & Tabs

 

Adams Song Chords & Tabs

Blink 182 Chords & Tabs

Version: 6 Type: Bass Tab 0 ratings
1 star 2 stars 3 stars 4 stars 5 stars
comments

Adams Song Bass Tab

Tuneing DGCF
the-------11------------
stands for eleventh fret

Verse
------------------------------------------------------------
----8x---------------------------------8x-------------------
5-5-5-5-5-5-5-5-------8x--------2-2-2-2-2-2-2-2------8x-----
----------------3-3-3-3-3-3-3-3-----------------3-3-3-3-3-3-

---
---
3-3
---

Leading up to chorus 
------------------------------------------------------------
----8x----------------8x------------8x----------------------
7-7-7-7-7-7-7-7-9-9-9-9-9-9-9-9-2-2-2-2-2-2-2-2------8x-----
------------------------------------------------3-3-3-3-3-3-

---    then for the next ime do         -8x
---                                     5 
3-3                                     - 
---                                     - 

Chorus
------------------------------------------------7-7-7-7-7-7-
7-7-7-7-7-7-7-7-9-9-9-9-9-9-9-9-4-4-4-4-4-4-4-4-5-5-5-5-5-5-
5-5-5-5-5-5-5-5-7-7-7-7-7-7-7-7-2-2-2-2-2-2-2-2-------------
------------------------------------------------------------

7-7
5-5
---
---

Interlude                2x
--------------------7-----7---7-----9-----9---9-----7-----7-
----7-----7---7-5-5---5-5---5---7-7---7-7---7---5-5---5-5---
5-5---5-5---5-----------------------------------------------
------------------------------------------------------------
[ Tab from: http://www.guitartabs.cc/tabs/b/blink_182/adams_song_btab_ver_6.html ]
--7---------------------7-----7---7-----9-----9---9-----11--
5-------7-----7---7-5-5---5-5---5---7-7---7-7---7---9-9-----
----5-5---5-5---5-------------------------------------------
------------------------------------------------------------

------7-----------------------------------------------------
9-5-5---5---------------------------------------------------
------------------------------------------------------------
------------------------------------------------------------
                     3x
-----------------7-7-7-7-7-7-7-7----------------------------
7-7-7-7-7-7-7-7--5-5-5-5-5-5-5-5----------------------------
5-5-5-5-5-5-5-5---------------------------------------------
------------------------------------------------------------

then at the end of the interlude it goes      1x
----------------7-7-7-7-7-7-7-7-9-9-9-9-9-9-9-9-11-11-11-11-
7-7-7-7-7-7-7-7-5-5-5-5-5-5-5-5-7-7-7-7-7-7-7-7-9--9--9--9--
5-5-5-5-5-5-5-5---------------------------------------------
------------------------------------------------------------

7-7-7-7-----------------------------------------------------
5-5-5-5-----------------------------------------------------
------------------------------------------------------------
------------------------------------------------------------

Verse 4x
Lead up 
Chorus 2x 
verse 4x
Lead up
Chrous 2x 
Interlude
Chorus 4x
Comments