Blink 182 - Action Chords & Tabs

 

Action Chords & Tabs

Blink 182 Chords & Tabs

Version: 8 Type: Tab 0 ratings
1 star 2 stars 3 stars 4 stars 5 stars
comments

Action Tab

   
New Blink 182 song. Title=Action
Not 100% but pretty close.


\=slide down
p.m.=palm mute
~=let ring

intro
e--------------
b--------------
g--------------
d-4\2-2---2-6--
a--------------
e-------0------ x2

verse
e-------------
b-7\5-5-------
g-6\4-4-------
d-4\2-2---2-6-
a------------- 
e-------0----- x8

chorus
e---------------
b-5-----------5-
g-4-----------4-
d-2-----------2-
a---------------
e---------------

buildup to intro
e----------------------------------------
b----------------------------------------
g-444444444\666666666\888888888\99999999-
d-222222222\444444444\666666666\77777777-
a----------------------------------------
e----------------------------------------

intro
e--------------
b--------------
g--------------
d-4\2-2---2-6--
a--------------
e-------0------ x2

verse
e-------------
b-7\5-5-------
g-6\4-4-------
d-4\2-2---2-6-
a------------- 
e-------0----- x6

chorus
e---------------
b-5-----------5-
g-4-----------4-
d-2-----------2-
a---------------
e---------------
[ Tab from: http://www.guitartabs.cc/tabs/b/blink_182/action_tab_ver_8.html ]
interlude prt. 1
e-----------------------------------------------------------------
b-----------------------------------------------------------------
g-4-4-4-4-4-4-4-4-------------------------------------------------
d-2-2-2-2-2-2-2-2-4-4-4-4-4-4-4-4-6-6-6-6-6-6-6-6-2-2-2-2-2-2-2-2-
a-----------------2-2-2-2-2-2-2-2-4-4-4-4-4-4-4-4-0-0-0-0-0-0-0-0-
e-----------------------------------------------------------------
  p.m............................................................

interlude prt. 2
e-------------------------------------------------
b-------------------------------------------------
g-4-4-4-4-4-4-4-4---------------------------------
d-2-2-2-2-2-2-2-2-4-4-4-4-4-4-4-4-6-6-6-6-6-2-2-2-
a-----------------2-2-2-2-2-2-2-2-4-4-4-4-4-0-0-0-
e-------------------------------------------------
  p.m............................................

outro prt. 1
e-----------------------------------------------------------------
b-----------------------------------------------------------------
g-4-4-4-4-4-4-4-4-------------------------------------------------
d-2-2-2-2-2-2-2-2-4-4-4-4-4-4-4-4-6-6-6-6-6-6-6-6-2-2-2-2-2-2-2-2-
a-----------------2-2-2-2-2-2-2-2-4-4-4-4-4-4-4-4-0-0-0-0-0-0-0-0-
e----------------------------------------------------------------- x8

outro prt. 2
e----------------------------------------------------
b----------------------------------------------------
g-4-4-4-4-4-4-4-4------------------------------------
d-2-2-2-2-2-2-2-2-4-4-4-4-4-4-4-4-6-6-6-6-6-6-6-6-2~-
a-----------------2-2-2-2-2-2-2-2-4-4-4-4-4-4-4-4-0~-
e----------------------------------------------------


Thats it. Have any ?'s email me at: theguitar89@sbcglobal.net
Comments