Blink 182 - Action Chords & Tabs

 

Action Chords & Tabs

Blink 182 Chords & Tabs

Version: 1 Type: Bass Tab 0 ratings
1 star 2 stars 3 stars 4 stars 5 stars
comments

Action Bass Tab

Artist: Blink 182
Song: Action
Album: Blink 182
Tabbed by Danny182 dan_rocks_uk@hotmail.com : www.tand.co.uk

Here's Blink's new song ppl, just seen em at leeds fest,
the new albums gona rule!
So here we are, enjoy and don't let your smiles fade in the summer...

[ Tab from: http://www.guitartabs.cc/tabs/b/blink_182/action_btab.html ]
Verse:
--------------------------------------
--------------------------------------
--------------------------------------
-0-0-0-0-0-0-0--0--4-4-4-------------- x?
or...
--------------------------------------
--------------------------------------
-7-7-7-7-7-7-7--7--11-11-11-----------
--------------------------------------
Chorus:
-----------------------------------------------------------------
-----------------------------------------------------------------
-7-7-7-7-7-7-7-7-9-9-9-9-9-9-9-----------------------------------
-------------------------------4-4-4-4-4-4-4-5-5-5-5-5-5-5-5----- x2

Street with a cig...bit
---------------------------------------
---------------------------------------
-7~------------------------------------
-----7~---9~---5~----------------------

Outro: 2 versions here, i can't quite tell which is right maybe mix 'n' match
------------------------------------------------------------------
-----9----9-------------------------------------------------------
-7-7--7-7-------9-----9-7-----11-----11------7-----7--------------
------------7-7---7-7-----9-9----9-9-----5-5---5-5----------------

or...
------------------------------------------------
------------------------------------------------
-7-7-7-7-7-7------------------------------------
-------------7-7-7-7-7-7-9-9-9-9-9-9-5-5-5-5-5-5
Comments