Blink 182 - A New Hope Chords & Tabs

 

A New Hope Chords & Tabs

Blink 182 Chords & Tabs

Version: 8 Type: Tab 0 ratings
1 star 2 stars 3 stars 4 stars 5 stars
comments

A New Hope Tab

   
Artist:Blink 182
Song Name:A New Hope 
Album:Dude Ranch
pm:*
hammer:h
Tuning:Standard
Intro
E---------------------------------------------------------------------
B---888888888888-7777-88888888-8888-7777------------------------------
G---000000000000-0000-55555555-7777-7777------------------------------  x2
D---------------------------------------------------------------------
A---------------------------------------------------------------------
E---------------------------------------------------------------------

Verse
E---------------------------------------------------------------------
B-------------------------------------------------8888-7777-----------
G-----------55-7-----------55-7-----------55-77---0000-0000-----------  x2
D---5555555-55-5---5555555-55-7---2222222-55-77-----------------------
A---5555555-33-5---5555555-33-5---2222222-33-55-----------------------
E---3333333--------3333333--------0000000-----------------------------
[pick slide second time]

Chorus
E---------------------------------------------------------------------
B---------------------------------------------------------------------
G---555555555555-777777777777-----------------------------------------
D---555555555555-777777777777-----------------------------------------
A---333333333333-555555555555-----------------------------------------
E-----------------------------------3-3-333--5----3-3-333--2----------
                                    * * ***       * * ***
E---------------------------------------------------------------------
B---------------------------------------------------------------------
G------------------------------555555555555-777777777777--------------
D------------------------------555555555555-777777777777--------------
A------------------------------333333333333-555555555555--------------
E---3-3-333--5----3-3-333--2------------------------------------------
    * * ***       * * ***
Repeat Intro
Repeat Verse
Repeat Chorus
[ Tab from: http://www.guitartabs.cc/tabs/b/blink_182/a_new_hope_tab_ver_8.html ]
Solo
E---------------------------------------------------------------------
B---------------------------------------------------------------------
G--77777777----------4h7-----4h7-----4h7-----4-----5h4-----5h4--------
D--77777777-------55------55------55------55----55------55------------
A--55555555-----------------------------------------------------------
E---------------------------------------------------------------------
   ********       **      **      **      **    **      **

E---------------------------------------------------------------------
B---------------------------------------------------------------------
G-----5h4-----4------4h7-----4h7-----4h7-----4-----5h4-----5h4--------
D--55------55-----55------55------55------55----55------55------------
A---------------------------------------------------------------------
E---------------------------------------------------------------------
   **      **     **      **      **      **    **      **
E---------------------------------------------------------------------
B---------------------------------------------------------------------
G-----4h5-----4-------------------------------------------------------
D--55------55---------------------------------------------------------
A---------------------------------------------------------------------
E---------------------------------------------------------------------
   **      **
Interlude 
E---------------------------------------------------------------------
B---------------------------------------------------------------------
G-----------777777--555555---999999---777777--------------------------
D---555555--777777--555555---999999---777777--------------------------
A---555555--555555--333333---777777---555555--------------------------
E---333333------------------------------------------------------------
Chorus x2 

Lyrics

I've got her in my head
At night when I go to bed
And I know it sounds lame but
she's the girl of my dreams
And of course I'd do anything for her
I'd search the moons of Endor
I'd even walk naked through the
deserts of Tatooine

Princess Leia where are you tonight
And who's laying there by your side
Every night I fall asleep with you
And I wake up alone

And Even though I'm not as cool as han
I still want to be your man
you're exactly the kind of
alderranian that I need
But when you were available I was
drinking colt 45's with lando
I was hanging in the cantina
at mos eisley

Well thats it. I'm pretty sure it's about 98% right
If you have any questions, comments, or complaints
e-mail me at zangard3@hotmail.com
Comments