Blink 182 - 21 Days Chords & Tabs

 

21 Days Chords & Tabs

Blink 182 Chords & Tabs

Version: 6 Type: Tab 0 ratings
1 star 2 stars 3 stars 4 stars 5 stars
comments

21 Days Tab

   
Artist - blink-182
Song - 21 Days
Album - Buddha

 This is my favourite blink song ever and no tabs are correct (not to sound big headed 
lol) so like for people who also love the song, here you go =D enjoy (:
Tabbed by Daniel Speed (Yes my surname IS funny ;D)


0:14 - 0:35

e|----------------------------------------|
B|----------------------------------------| (Clean)
G|-----2/-11--7-7-11-11-----2/-11-9-9-7-7-|
D|-(0)------------------(0)---------------|
A|----------------------------------------|
E|----------------------------------------|

0:36 - 0:42

e|----------------------------------------|
B|----------------------------------------| (Clean)
G|-----2/-11--7-7-11-11-----2/-11-9-9-7-7-|
D|-(0)------------------(0)---------0-0-0-|
A|----------------------------------------|
E|----------------------------------------|
                                    ^ Hit distortion on here
0:43 - 0:56

e|---------------------------------------------------------------------------------|
B|---------------------------------------------------------------------------------|
G|-2-2-2/-11-11-11-11-9-9-9-9-11-11-11-11-11-2-2-2/-11-11-11-11--9-9-9-9-7-7-7-7-7-|
D|-0-0-0---0--0--0--0-0-0-0-0--0--0--0--0--0-0-0-0---0--0--0--0--0-0-0-0-0-0-0-0-0-|
A|---------------------------------------------------------------------------------|
E|---------------------------------------------------------------------------------|

0:56 - 1:03

" My mind wanders, as I'm trying not to fall in love with you"

e|-----------------------------------------------------------------|
B|-----------------------------------------------------------------|
G|-7-7-7-7-7-7-7-7-7-7-7-7-----------------------------------------|
D|-7-7-7-7-7-7-7-7-7-7-7-7-7-7-7-7-5-5-5-5-5-5-5-5-5-5-5-5-4-4-4-4-|
A|-5-5-5-5-5-5-5-5-5-5-5-5-7-7-7-7-5-5-5-5-5-5-5-5-5-5-5-5-4-4-4-4-|
E|-------------------------5-5-5-5-3-3-3-3-3-3-3-3-3-3-3-3-2-2-2-2-|

1:04 - 1:10

"Cause' everytime I awake I ponder on my mistakes of"

e|-----------------------------------------------------------------------------|
B|-----------------------------------------------------------------------------|
G|-7-7-7-7-7-7-7-7-7-7-7-7-9-9-9-9-12-12-12-12-12-12-12-12-12-12-12-12-9-9-9-9-|
D|-x-x-x-x-x-x-x-x-x-x-x-x-x-x-x-x--x--x--x--x--x--x--x--x--x--x--x--x-x-x-x-x-|
A|-5-5-5-5-5-5-5-5-5-5-5-5-7-7-7-7-10-10-10-10-10-10-10-10-10-10-10-10-7-7-7-7-|
E|-----------------------------------------------------------------------------|

1:11 - 1:17

"What I said, it is always my esteem that I should lose"

e|-----------------------------------------------------------------|
B|-----------------------------------------------------------------|
G|-7-7-7-7-7-7-7-7-7-7-7-7-----------------------------------------|
D|-7-7-7-7-7-7-7-7-7-7-7-7-7-7-7-7-5-5-5-5-5-5-5-5-5-5-5-5-4-4-4-4-|
A|-5-5-5-5-5-5-5-5-5-5-5-5-7-7-7-7-5-5-5-5-5-5-5-5-5-5-5-5-4-4-4-4-|
E|-------------------------5-5-5-5-3-3-3-3-3-3-3-3-3-3-3-3-2-2-2-2-|

1:18 - 1:24

"Playing those stupid games as I always end up chasing you"

e|-----------------------------------------------------------------|
B|-----------------------------------------------------------------|
G|-7-7-7-7-7-7-7-7-7-7-7-7-9-9-9-9-7-7-7-7-7-7-7-7-7-7-7-7-9-9-9-9-|
D|-x-x-x-x-x-x-x-x-x-x-x-x-x-x-x-x-x-x-x-x-x-x-x-x-x-x-x-x-x-x-x-x-|
A|-5-5-5-5-5-5-5-5-5-5-5-5-7-7-7-7-5-5-5-5-5-5-5-5-5-5-5-5-7-7-7-7-|
E|-----------------------------------------------------------------|

1:25 - 1:38
[ Tab from: http://www.guitartabs.cc/tabs/b/blink_182/21_days_tab_ver_6.html ]
e|---------------------------------------------------------------------------------|
B|---------------------------------------------------------------------------------|
G|-2-2-2/-11-11-11-11-9-9-9-9-11-11-11-11-11-2-2-2/-11-11-11-11--9-9-9-9-7-7-7-7-7-|
D|-0-0-0---0--0--0--0-0-0-0-0--0--0--0--0--0-0-0-0---0--0--0--0--0-0-0-0-0-0-0-0-0-|
A|---------------------------------------------------------------------------------|
E|---------------------------------------------------------------------------------|

1:38 - 1:45

" I can't help myself anymore"

e|---------------------------------------------------|
B|---------------------------------------------------|
G|-------------------------7-------7-------7-------7-|
D|-2-2-2-2-5-5-5-5-5---------------------------------|
A|-2-2-2-2-5-5-5-5-5-5-5-5---5-5-5---5-5-5---5-5-5---|
E|-0-0-0-0-3-3-3-3-3---------------------------------|
                     . . . . . . . . . . . . . . . .

1:48 - 1:52

"Rehersing my thoughts as I'm to scared to come to your door"

e|---------------------------------------------------|
B|---------------------------------------------------|
G|-------------------------7-------7-------7-------7-|
D|-2-2-2-2-5-5-5-5-5---------------------------------|
A|-2-2-2-2-5-5-5-5-5-5-5-5---5-5-5---5-5-5---5-5-5---|
E|-0-0-0-0-3-3-3-3-3---------------------------------|
                     . . . . . . . . . . . . . . . .

1:52 - 1:58

" I pushed it all aside just to stand next to you"

e|-------------------------------------------------------------------------|
B|-------------------------------------------------------------------------|
G|-9-9-9-9-9-9-9-9-12-12-12-12-12-12-12-12-------7-------7-------7-------7-|
D|-x-x-x-x-x-x-x-x--x--x--x--x--x--x--x--x---------------------------------|
A|-7-7-7-7-7-7-7-7-10-10-10-10-10-10-10-10-5-5-5---5-5-5---5-5-5---5-5-5---|
E|-------------------------------------------------------------------------|
                                           . . . . . . . . . . . . . . . .

1:59 - 2:07

"Now you won't talk to me for something that I didn't do... it's not gonna' work"

e|---------------------------------|
B|---------------------------------|
G|--------------------------2~--2~-|
D|-2-2-2-2-5-5-5-5-5-7~-5-4-2~--2~-|
A|-2-2-2-2-5-5-5-5-5-5~-3-2-0~--0~-|
E|-0-0-0-0-3-3-3-3-3---------------|

2:21 - 2:50

"And I'm trying not to think of you
 I'm all confused as I think of the things that I would do
 I'm all shook up as I get all nervous inside
 My emotions are something that I will always hide my ways"

2:49 - 3:03

e|-----------------------------------------------------------|
B|-----------------------------------------------------------| (Clean)
G|-7-9-11-12-11-9--7-9-11-9-7-7--7-9-11-12-11-9-7-9-11-9-7-7-|
D|-----------------------------------------------------x-x-x-|
A|-----------------------------------------------------7-5-5-|
E|-----------------------------------------------------------|
                                                       ^ Hit distortion on here

3:03 - 3:58

e|----------------------------------------------------------------------------------|
B|----------------------------------------------------------------------------------|
G|-7-7-7-7-7-9-9-9-9-11-11-12-12-11-11-9-9-7-7--7-7-7-7-7-9-9-9-9-11-11-9-9-7-7-7-7-|
D|-x-x-x-x-x-x-x-x-x--x--x--x--x--x--x-x-x-x-x--x-x-x-x-x-x-x-x-x--x--x-x-x-x-x-x-x-|
A|-5-5-5-5-5-7-7-7-7--9--9-10-10--9--9-7-7-5-5--5-5-5-5-5-7-7-7-7--9--9-7-7-5-5-5-5-|
E|----------------------------------------------------------------------------------|
           V                                            V
3:58 - 4:02

e|----|
B|----|
G|-7~-|
D|-x--|
A|-5~-|
E|----|


V = Upstrum
. = Palm Mute
(o) = Note optional
/ = Slide Up
Comments