Blink182 - Adams Song Chords & Tabs

 

Adams Song Chords & Tabs

Blink182 Chords & Tabs

Version: 1 Type: Tab 1 rating
1 star 2 stars 3 stars 4 stars 5 stars
comments

Adams Song Tab

tempo-132

e---------------------------------
b---------------------------------
d---------------------------------     x2
g--40-40-40-40-40-40-40-40--------
a-2--2--0--0----------------------
e-------------3--3--0--3----------
[ Tab from: http://www.guitartabs.cc/tabs/b/blink182/adams_song_tab.html ]
e---------------------------------------------------------
b---------------------------------------------------------
d---------------------------------------------------------   x6
g--4-4-4-4-4-4-4------------------------------------------
a--5-5-5-5-5-5-5-5-5-5-5-5-5-5-9-9-9-9-9-9-9-5-5-5-5-5-5-5
e----------------3-3-3-3-3-3-3-7-7-7-7-7-7-7-3-3-3-3-3-3-3

e---------------------------------
b---------------------------------
d---------------------------------
g--70-70-90-90-40-40-40-40--------   x2
a-5--5--7--7--2--2----------------
e-------------------3--3----------
Comments