Blindspott - Fall Down Chords & Tabs

 

Fall Down Chords & Tabs

Blindspott Chords & Tabs

Version: 1 Type: Tab 0 ratings
1 star 2 stars 3 stars 4 stars 5 stars
comments

Fall Down Tab

   
Author/Band:Blindspott
Song:Falldown
Album:Blindspott
Tuning:Drop D (D A D G B E) Low to High
Tabbed by: KoRotz
Contact: epat_skateboarding@hotmail.com

Key
<> = harmonic
p  = pull of
h  = hammer on
*  = palm mute
x  = mute
/  = slide up
\  = slide down
^  = bend

Intro/verse w/delay 8x
----------------------------------------------|
----------------------------------------------|
----------------------------------------------|
--9p7-9p7-9p7-9p7-9p7-----------9p7-9p7-9p7---|
----------------------10p9-10p9---------------|
----------------------------------------------|

Pre-chorus 2x w/distortion 2x
--------------------------------|
--------------------------------|
--------------------------------|
--77777777777666666666666-------|
--55555555555444444444444-------|
--55555555555444444444444-------|
"I knooooooooowwww..."

Chorus 1 4x
----------------------------------|
----------------------------------|
--10-----9------------------------|
---x-xx--x-xx-101010101010101010--|
---8-xx--7-xx--8-8-8-8-8-8-8-8-8--|
---0-xx--0-xx--8-8-8-8-8-8-8-8-8--|
"Just step back mutha ***er..."

Intro/verse w/delay 12x
----------------------------------------------|
----------------------------------------------|
----------------------------------------------|
--9p7-9p7-9p7-9p7-9p7-----------9p7-9p7-9p7---|
----------------------10p9-10p9---------------|
----------------------------------------------|

Pre-chorus 2x w/distortion 2x
--------------------------------|
--------------------------------|
--------------------------------|
--77777777777666666666666-------|
--55555555555444444444444-------|
--55555555555444444444444-------|
"Like yoooooooooouuuu"

Chorus 1 4x
----------------------------------|
----------------------------------|
--10-----9------------------------|
---x-xx--x-xx-101010101010101010--|
---8-xx--7-xx--8-8-8-8-8-8-8-8-8--|
---0-xx--0-xx--8-8-8-8-8-8-8-8-8--|
"Just step back mutha ***er..."

Fill 1x
---------------------------------------------|
---------------------------------------------|
---------------------------------------------|
--1111111111111111-0-7-7-7-7-7-7-7-7-7-7-----|
---9-9-9-9-9-9-9-9-0-5-5-5-5-5-5-5-5-5-5-----|
---9-9-9-9-9-9-9-9-0-5-5-5-5-5-5-5-5-5-5-----|

Chorus 2 2x
------------------------------------------------------|
------------------------------------------------------|
------------------------------------------------------|
--00000000-7777777777777/99999999999-0-777777777777---|
--00000000-7777777777777/99999999999-0-555555555555---|
--00000000-7777777777777/99999999999-0-555555555555---|
"The pleasure's all mine"

Guitar 2
------------------------------------|
--15151515151515151515151515151515--|
---x-x-x-x-x-x-x-x-x-x-x-x-x-x-x-x--|
--12121212121212121212121212121212--|
---0-0-0-0-0-0-0-0-0-0-0-0-0-0-0-0--|
---0-0-0-0-0-0-0-0-0-0-0-0-0-0-0-0--|
[ Tab from: http://www.guitartabs.cc/tabs/b/blindspott/fall_down_tab.html ]
Bridge w/fast delay (30) or light tremol pick 1x
------------------------------------------------------|
--0-----------0--<7>----------0-----------0-<7>-------|
------------------------------------------------------|
------------------------------------------------------|
------------------------------------------------------|
------------------------------------------------------|

Break down 4x
----------------------------------|
--18----17------------------------|
---x-----x------------------------|
--15-xx-14-xx-101010101010101010--|
---0-xx--0-xx--8-8-8-8-8-8-8-8-8--|
---0-xx--0-xx--8-8-8-8-8-8-8-8-8--|

Fill 1x
---------------------------------------------|
---------------------------------------------|
---------------------------------------------|
--1111111111111111-0-7-7-7-7-7-7-7-7-7-7-----|
---9-9-9-9-9-9-9-9-0-5-5-5-5-5-5-5-5-5-5-----|
---9-9-9-9-9-9-9-9-0-5-5-5-5-5-5-5-5-5-5-----|

Chorus 2 2x
------------------------------------------------------|
------------------------------------------------------|
------------------------------------------------------|
--00000000-7777777777777/99999999999-0-777777777777---|
--00000000-7777777777777/99999999999-0-555555555555---|
--00000000-7777777777777/99999999999-0-555555555555---|
"The pleasure's all mine"

Guitar 2
------------------------------------|
--15151515151515151515151515151515--|
---x-x-x-x-x-x-x-x-x-x-x-x-x-x-x-x--|
--12121212121212121212121212121212--|
---0-0-0-0-0-0-0-0-0-0-0-0-0-0-0-0--|
---0-0-0-0-0-0-0-0-0-0-0-0-0-0-0-0--|

Fill 4x
----------------------------------------------------------------------|
----------------------------------------------------------------------|
----------------------------------------------------------------------|
--1111111111111111-0-7-7-7-7-7-7-7-7-7-7-00000000000-77777777777777---|
---9-9-9-9-9-9-9-9-0-5-5-5-5-5-5-5-5-5-5-00000000000-77777777777777---|
---9-9-9-9-9-9-9-9-0-5-5-5-5-5-5-5-5-5-5-00000000000-77777777777777---|

Guitar 2
------------------------------------|
--15151515151515151515151515151515--|
---x-x-x-x-x-x-x-x-x-x-x-x-x-x-x-x--|
--12121212121212121212121212121212--|
---0-0-0-0-0-0-0-0-0-0-0-0-0-0-0-0--|
---0-0-0-0-0-0-0-0-0-0-0-0-0-0-0-0--|

End Riff
---------|
---------|
---------|
--11-----|
---9-----|
---9-----|1x

Lyrics

You despise the things I know
And you think I don't but I know
I know
I know

Just step back muther ***er, put that *** away (fall down)
No one can survive on what you gotta say (fall down)
All the drunks got to make it right (fall down)
(FALL DOWN SET THE TIES)

I wish I was perfect just like you (like you)
Can I *** things up the way you always do
Like you
Like you

Just step back muther ***er, put that *** away (fall down)
No one can survive on what you gotta say (fall down)
All the drunks got to make it right (fall down)
(FALL DOWN SET THE TIES)
The pleasures all mine, we will fall
The pleasures all mine, now

FALL DOWN - turntables
The pleasures all mine, we will fall
The pleasures all mine

Just step back muther ***er, put that *** away
FALL DOWN (like You)
No one can survive on what you gotta say (like you)
FALL DOWN
All the drunks got to make it right (like you)
FALL DOWN
FALL DOWN SET THE TIES (like you)

Like You - turntables

That's it
Shout out to MuNkY & mcud!
Comments