Blindspott - Blank Chords & Tabs

 

Blank Chords & Tabs

Blindspott Chords & Tabs

Version: 1 Type: Tab 0 ratings
1 star 2 stars 3 stars 4 stars 5 stars
comments

Blank Tab

Author/Band:Blindspott
Song:Blank
Album:Blindspott
Tabbed by:KoRotz
Tuning:EADGBE (low to high)
Contact: epat_skateboarding@hotmail.com

Key
<> = harmonic
p  = pull of
h  = hammer on
*  = palm mute
x  = mute
/  = slide up
\  = slide down
^  = bend

Intro w/distortion
---------------------------------------------------------------|
---------------------------------------------------------------|
----------------------------------------------8-8-8-8-8-8-8-8--|
----------------------------------------------6-6-6-6-6-6-6-6--|
--7---7-----7-7---7-----7---7-----7---0-2-0-4-4-4-4-4-4-4-4-4--|
--5-0-5-0-0-5-5-0-5-0-0-5-0-5-0-0-5-------------4-4-4-4-4-4-4--|2x

Verse w/delay
----------------------------------|
-----7----------------4-----5-----|
-------9---9------------6---------|
---------9---9------------6-------|
--7-----------------4-------------|
----------------------------------|4x

Chorus w/distortion
---------------------------------------------------------------|
---------------------------------------------------------------|
----------------------------------------------8-8-8-8-8-8-8-8--|
----------------------------------------------6-6-6-6-6-6-6-6--|
--7---7-----7-7---7-----7---7-----7---0-2-0-4-4-4-4-4-4-4-4-4--|
--5-0-5-0-0-5-5-0-5-0-0-5-0-5-0-0-5-------------4-4-4-4-4-4-4--|4x

Verse
----------------------------------|
-----7----------------4-----5-----|
-------9---9------------6-----6---|
---------9---9------------6-------|
--7-----------------4-------------|
----------------------------------|4x

Chorus w/distortion
---------------------------------------------------------------|
---------------------------------------------------------------|
----------------------------------------------8-8-8-8-8-8-8-8--|
----------------------------------------------6-6-6-6-6-6-6-6--|
--7---7-----7-7---7-----7---7-----7---0-2-0-4-4-4-4-4-4-4-4-4--|
--5-0-5-0-0-5-5-0-5-0-0-5-0-5-0-0-5-------------4-4-4-4-4-4-4--|4x

Fill
---------|
---------|
---------|
---2-----|
---2-----|
---0-----|1x

Bridge 1 clean w/delay
------------------------------------------|
------------------------------------------|
---------8-------------11-----------8-----|
------6-----6-------9------9-----6-----6--|
---4-------------7------------4-----------|
------------------------------------------|1x
[ Tab from: http://www.guitartabs.cc/tabs/b/blindspott/blank_tab.html ]
clean w/faster delay
-----------------------------------------|
-----------------------------------------|
-------11----11---------11-----8---8---8-|
-----9-----9----------9------6---6---6---|
---7-----7----------7-----\4-------------|
-----------------------------------------|4x

Bridge 2
------------------------------------------------------------------------------------|
------------------------------------------------------------------------------------|
------------------------------------------------------------------------------------|
--2-2--2-2--2-2--2-22--2-2--2-2--2-2-2-22-6-6--6-6--6-6--6-66--6-6--6-6--6-6--6-66--|
--2-2--2-2--2-2--2-22--2-2--2-2--2-2-2-22-4-4--4-4--4-4--4-44--4-4--4-4--4-4--4-44--|
--0-0--0-0--0-0--0-00--0-0--0-0--0-0-0-00-4-4--4-4--4-4--4-44--4-4--4-4--4-4--4-44--|2x
  * *  * *  * *  * **  * *  * *  * * * ** * *  * *  * *  * **  * *  * *  * *  * **

Fill w/distortion
---0---|
---0---|
---0---|
---0---|
-------|
-------|1x

w/distortion
------------------------------------------------------------------------------------|
------------------------------------------------------------------------------------|
------------------------------------------------------------------------------------|
--2-2--2-2--2-2--2-22--2-2--2-2--2-2-2-22-6-6--6-6--6-6--6-66--6-6--6-6--6-6--6-66--|
--2-2--2-2--2-2--2-22--2-2--2-2--2-2-2-22-4-4--4-4--4-4--4-44--4-4--4-4--4-4--4-44--|
--0-0--0-0--0-0--0-00--0-0--0-0--0-0-0-00-4-4--4-4--4-4--4-44--4-4--4-4--4-4--4-44--|4x

Fill w/distortion
-------|
-------|
--<7>--|
--<7>--|
--<7>--|
-------|1x

w/distortion
-------------------------------------------------|
-------------------------------------------------|
-------------------------------------------------|
--2-22-6-6--6-6--6-6--6-66--66---6-6--6-6--6-66--|
--2-22-4-4--4-4--4-4--4-44--4-4--4-4--4-4--4-44--|
--0-00-4-4--4-4--4-4--4-44--4-4--4-4--4-4--4-44--|1x

------------------------------------------------------------------------------------|
------------------------------------------------------------------------------------|
------------------------------------------------------------------------------------|
--2-2--2-2--2-2--2-22--2-2--2-2--2-2-2-22-6-6--6-6--6-6--6-66--66---6-6--6-6--6-66--|
--2-2--2-2--2-2--2-22--2-2--2-2--2-2-2-22-4-4--4-4--4-4--4-44--4-4--4-4--4-4--4-44--|
--0-0--0-0--0-0--0-00--0-0--0-0--0-0-0-00-4-4--4-4--4-4--4-44--4-4--4-4--4-4--4-44--|2x

Drum solo outro...

That's it!

shoutout to mcud and MuNkY you's da man!
peace out!
Comments