Blindside - Yamkela Chords & Tabs

 

Yamkela Chords & Tabs

Blindside Chords & Tabs

Version: 1 Type: Tab 0 ratings
1 star 2 stars 3 stars 4 stars 5 stars
comments

Yamkela Tab

   
Artist: Blindside
Song: Yamkela
Album:  The Great Depression
Tab By:  Mike Mamouzellos

Tuning: Eb

2x  w/ Heavy Dist.
-|-------------------------------------------------------------------|-
-|-------------------------------------------------------------------|-
-|-------------------------------------------------------------------|-
-|--4-4-4-4-4-4-4-4-5-5-5-5-5-5-5-5-8-8-8-8-8-8-8-8-7-7-7-7-7-7-7-7--|-
-|--4-4-4-4-4-4-4-4-5-5-5-5-5-5-5-5-8-8-8-8-8-8-8-8-7-7-7-7-7-7-7-7--|-
-|--2-2-2-2-2-2-2-2-3-3-3-3-3-3-3-3-6-6-6-6-6-6-6-6-5-5-5-5-5-5-5-5--|-

2x  w/ Heavy Dist
-|------------------------------|-
-|------------------------------|-
-|----4-3-4-3-4-4^-3h4^-4p3h4---|-
-|--2---------------------------|-
-|--2---------------------------|-
-|--0---------------------------|-

4x  w/ Heavy Dist.
-|-------------------------------------------------------------------|-
-|-------------------------------------------------------------------|-
-|-------------------------------------------------------------------|-
-|--4-4-4-4-4-4-4-4-5-5-5-5-5-5-5-5-8-8-8-8-8-8-8-8-7-7-7-7-7-7-7-7--|-
-|--4-4-4-4-4-4-4-4-5-5-5-5-5-5-5-5-8-8-8-8-8-8-8-8-7-7-7-7-7-7-7-7--|-
-|--2-2-2-2-2-2-2-2-3-3-3-3-3-3-3-3-6-6-6-6-6-6-6-6-5-5-5-5-5-5-5-5--|-

Heavy Dist.
-|---------------------------------------------------------|-
-|---------------------------------------------------------|-
-|----4-3-4-3-4-4^-3h4^-4p3h4----4-3-4-3-4-4^-3h4^-4p3h4---|-
-|--2--------------------------2---------------------------|-
-|--2--------------------------2---------------------------|-
-|--0--------------------------0---------------------------|-

Heavy Dist.
-|--------------------|-
-|--------------------|-
-|--------------------|-
-|--5-5---5--5-5---5--|-
-|--5-5---5--5-5---5--|-
-|--3-3---3--3-3---3--|-

Heavy Dist.
-|---------------------------------------------------------|-
-|---------------------------------------------------------|-
-|----4-3-4-3-4-4^-3h4^-4p3h4----4-3-4-3-4-4^-3h4^-4p3h4---|-
-|--2--------------------------2---------------------------|-
-|--2--------------------------2---------------------------|-
-|--0--------------------------0---------------------------|-

Heavy Dist.
-|--------------------|-
-|--------------------|-
-|--------------------|-
-|--5-5---5--5-5---5--|-
-|--5-5---5--5-5---5--|-
-|--3-3---3--3-3---3--|-

1x Light crunch/Low Volume
-|-------------------------------------------------------------------|-
-|-------------------------------------------------------------------|-
-|-------------------------------------------------------------------|-
-|--4-4-4-4-4-4-4-4-5-5-5-5-5-5-5-5-8-8-8-8-8-8-8-8-7-7-7-7-7-7-7-7--|-
-|--4-4-4-4-4-4-4-4-5-5-5-5-5-5-5-5-8-8-8-8-8-8-8-8-7-7-7-7-7-7-7-7--|-
-|--2-2-2-2-2-2-2-2-3-3-3-3-3-3-3-3-6-6-6-6-6-6-6-6-5-5-5-5-5-5-5-5--|-

3x  w/ Heavy Dist.
-|-------------------------------------------------------------------|-
-|-------------------------------------------------------------------|-
-|-------------------------------------------------------------------|-
-|--4-4-4-4-4-4-4-4-5-5-5-5-5-5-5-5-8-8-8-8-8-8-8-8-7-7-7-7-7-7-7-7--|-
-|--4-4-4-4-4-4-4-4-5-5-5-5-5-5-5-5-8-8-8-8-8-8-8-8-7-7-7-7-7-7-7-7--|-
-|--2-2-2-2-2-2-2-2-3-3-3-3-3-3-3-3-6-6-6-6-6-6-6-6-5-5-5-5-5-5-5-5--|-

Heavy Dist.
-|---------------------------------------------------------|-
-|---------------------------------------------------------|-
-|----4-3-4-3-4-4^-3h4^-4p3h4----4-3-4-3-4-4^-3h4^-4p3h4---|-
-|--2--------------------------2---------------------------|-
-|--2--------------------------2---------------------------|-
-|--0--------------------------0---------------------------|-
[ Tab from: http://www.guitartabs.cc/tabs/b/blindside/yamkela_tab.html ]
Heavy Dist.
-|--------------------|-
-|--------------------|-
-|--------------------|-
-|--5-5---5--5-5---5--|-
-|--5-5---5--5-5---5--|-
-|--3-3---3--3-3---3--|-

Heavy Dist.
-|---------------------------------------------------------|-
-|---------------------------------------------------------|-
-|----4-3-4-3-4-4^-3h4^-4p3h4----4-3-4-3-4-4^-3h4^-4p3h4---|-
-|--2--------------------------2---------------------------|-
-|--2--------------------------2---------------------------|-
-|--0--------------------------0---------------------------|-

Heavy Dist.
-|--------------------|-
-|--------------------|-
-|--------------------|-
-|--5-5---5--5-5---5--|-
-|--5-5---5--5-5---5--|-
-|--3-3---3--3-3---3--|-

Heavy Dist.
-|-----------------------------------------------------|-
-|-----------------------------------------------------|-
-|----4p3h4p3h4---4p3h4p3h4---4-3-4-3-4-4^-3h4^-4p3h4--|-
-|--2-----------2-----------2--------------------------|-
-|--2-----------2-----------2--------------------------|-
-|--0-----------0-----------0--------------------------|-

3x Heavy Dist.  Listen for rythym                    4th time end
-|-----------------------------------------------|--|---------|-
-|----11----10----11----10------12----11----10---|--|----7----|-
-|----13^---12^---13^---12^-----14^---13^---12^--|--|----9^---|-
-|-----------------------------------------------|--|---------|-
-|-----------------------------------------------|--|---------|-
-|--0-----0-----0-----0-----0-0-----0-----0------|--|--0------|-
P.M.-     -     -     -     ---     -     -            -

3x Heavy Dist.
-|--------------------------|-
-|--------------------------|-
-|--------------------------|-
-|--2---2---2--2-2---2-2-2--|-
-|--2---2---2--2-2---2-2-2--|-
-|--0---0---0--0-0---0-0-0--|-
P.M.------------------------

Heavy Dist.
-|---------------------------------------------------------|-
-|---------------------------------------------------------|-
-|----4-3-4-3-4-4^-3h4^-4p3h4----4-3-4-3-4-4^-3h4^-4p3h4---|-
-|--2--------------------------2---------------------------|-
-|--2--------------------------2---------------------------|-
-|--0--------------------------0---------------------------|-

Heavy Dist.
-|--------------------|-
-|--------------------|-
-|--------------------|-
-|--5-5---5--5-5---5--|-
-|--5-5---5--5-5---5--|-
-|--3-3---3--3-3---3--|-

Heavy Dist.
-|---------------------------------------------------------|-
-|---------------------------------------------------------|-
-|----4-3-4-3-4-4^-3h4^-4p3h4----4-3-4-3-4-4^-3h4^-4p3h4---|-
-|--2--------------------------2---------------------------|-
-|--2--------------------------2---------------------------|-
-|--0--------------------------0---------------------------|-

Heavy Dist.
-|--------------------|-
-|--------------------|-
-|--------------------|-
-|--5-5---5--5-5---5--|-
-|--5-5---5--5-5---5--|-
-|--3-3---3--3-3---3--|-

Heavy Dist.
-|-----------------------------------------------------|-
-|-----------------------------------------------------|-
-|----4p3h4p3h4---4p3h4p3h4---4-3-4-3-4-4^-3h4^-4p3h4--|-
-|--2-----------2-----------2--------------------------|-
-|--2-----------2-----------2--------------------------|-
-|--0-----------0-----------0--------------------------|-

5x Heavy Dist.
-|--------------------------|-
-|--------------------------|-
-|--------------------------|-
-|--2---2---2--2-2---2-2-2--|-
-|--2---2---2--2-2---2-2-2--|-
-|--0---0---0--0-0---0-0-0--|-
P.M.------------------------

Heavy Dist.
-|-----------------------|-
-|-----------------------|-
-|-----------------------|-
-|---2---2--2-2---2-2-2--|-
-|---2---2--2-2---2-2-2--|-
-|---0---0--0-0---0-0-0--|-

This is my first tab so if there are any mistakes feel free to let me know! Thanks and Enjoy!!
Comments