Blindside - Silence Chords & Tabs

 

Silence Chords & Tabs

Blindside Chords & Tabs

Version: 1 Type: Tab 0 ratings
1 star 2 stars 3 stars 4 stars 5 stars
comments

Silence Tab

Artist: Blindside
Title: Silence
Album: Silence
Tabbed by:  Andrew Jackson



Verse
eb|--------------------------------------------------------------------------|
Bb|--------------------------------------------------------------------------|
Gb|--------------------------------------------------------------------------|
Db|---5---7---5---5---5---7---5---5------------------------------------------|
Ab|---7---7---3---5---7---7---3---5------------------------------------------|
Eb|--------------------------------------------------------------------------|
                                                                   

eb|--------------------------------------------------------------------------|
Bb|--------------------------------------------------------------------------|
Gb|--------------------------------------------------------------------------|
Db|--5---7---5---5---5---7-----5---5---5---7---5---5---5---7---5---5---5---7-|
Ab|--7---7---3---5---7---7-----3---5---7---7---3---5---7---7---3---5---7---7-|
Eb|--------------------------------------------------------------------------|    
                                                                       
eb|--------------------------------------------------------------------------|
Bb|--------------------------------------------------------------------------|
Gb|--------------------------------------------------------------------------|
Db|--5---5---5---7---5---5---5---7---5---5---5---7-----5---5---5-------------|
Ab|--3---5---7---7---3---5---7---7---3---5---7---7-----3---5---5-------------|
Eb|--------------------------------------------------------------------------|

                                                                              
Chorus
eb|--------------------------------------------------------------------------|
Bb|----------0-------------0-------------------------------------------------|
Gb|--------2---2---------2---2-----------------------------------------------|
Db|------2-------------2-------------2-----0-----0---------------------------|
Ab|--0-------------0---------------2-----2-----2---2-------------------------|
Eb|------------------------------0-----2-----3-------------------------------|
                                                                              
eb|------------0-------------------------------------------------------------|
Bb|----------3---3-----3-3-----3-------0----0-----0--------------------------|
Gb|--------0-------0-------0---------2----2-----2---2------------------------|
Db|------2-----------2-------2-----2----2-----2------------------------------|
Ab|--3---------------------------0-------------------------------------------|
Eb|--------------------------------------------------------------------------|
                                                                             
eb|--------------------------------------------------------------------------|
Bb|----------3-------------3-------------------------------------------------|
Gb|--------2---2---------2---------------------------------------------------|
Db|------2-------2-----2-------------2-----0-----0---------------------------|
Ab|--0---------------0-------------2-----2-----2---2-------------------------|
Eb|------------------------------0-----2-----3-------------------------------|
                                                                              
eb|------------0-------------------------------------------------------------|
Bb|----------3-3---------3-------------0-------------------------------------|
Gb|--------0---0-------0---0---------2-------2-------------------------------|
Db|------2-----2-----2-------------2-------2---------------------------------|
Ab|--3---------3-----------------0-------0-----------------------------------|
Eb|--------------------------------------------------------------------------|
                                                                              
[ Tab from: http://www.guitartabs.cc/tabs/b/blindside/silence_tab.html ]
Verse
eb|--------------------------------------------------------------------------|
Bb|--------------------------------------------------------------------------|
Gb|--------------------------------------------------------------------------|
Db|--5---5---5---7---5---5---5---7---5---5---5---7---5---5---5---7-----------|
Ab|--7---5---3---7---7---5---3---7---7---5---3---7---7---5---3---7-----------|
Eb|--------------------------------------------------------------------------|
                                                                              
eb|--------------------------------------------------------------------------|
Bb|--------------------------------------------------------------------------|
Gb|--------------------------------------------------------------------------|
Db|--5---7---10--9-----------------------5---5---5-------5-5-5---------------|
Ab|--------------------------------------3---5---5-------5-5-5---------------|
Eb|---------------------0---------5------------------------------------------|
                                                                              

Chorus
eb|--0-0-0-0---0-0-0-0---0-0-0-0-0-0---0-0-0-0-------------------------------|
Bb|--1-1-1-1---0-0-3-0---3-3-3-3-3-3---0-0-0-0-------------------------------|
Gb|--0-0-0-0---0-2-0-4---0-0-0-0-0-0---2-2-2-2-------------------------------|
Db|--2-2-2-2---2-4-0-4---2-2-2-2-2-2---2-2-2-2-------------------------------|
Ab|--0-0-0-0---2-0-2-2---3-3-3-3-3-3---0-0-0-0-------------------------------|
Eb|--0-0-0-0---0-0-3-0---0-0-0-0-0-0---0-0-0-0-------------------------------|
                                                                              

eb|--0-0-0-0---0-0-0-0---0-0-0-0-0-0---0-0-0-0-------------------------------|
Bb|--1-1-1-1---0-0-3-0---3-3-3-3-3-3---0-0-0-0-------------------------------|
Gb|--0-0-0-0---0-2-0-4---0-0-0-0-0-0---2-2-2-2-------------------------------|
Db|--2-2-2-2---2-4-0-4---2-2-2-2-2-2---2-2-2-2-------------------------------|
Ab|--3-3-3-3---2-0-2-2---3-3-3-3-3-3---0-0-0-0-------------------------------|
Eb|--0-0-0-0---0-0-3-0---0-0-0-0-0-0---0-0-0-0-------------------------------|
                                                                              

eb|--0-0-0-0---0-0-0-0---0-0-0-0---0-0-0-0---0-0-0-0---0-0-0-0---0-0-0-0---0-|
Bb|--3-3-3-3---0-0-0-0---3-3-3-3---0-0-0-0---3-3-3-3---0-0-3-0---3-3-3-3---0-|
Gb|--0-0-0-0---2-2-2-2---0-0-0-0---2-2-2-2---0-0-0-0---0-2-0-4---0-0-0-0---2-|
Db|--2-2-2-2---2-2-2-2---2-2-2-2---2-2-2-2---2-2-2-2---2-4-0-4---2-2-2-2---2-|
Ab|--3-3-3-3---0-0-0-0---3-3-3-3---0-0-0-0---3-3-3-3---2-0-2-2---3-3-3-3---0-|
Eb|--0-0-0-0---0-0-0-0---0-0-0-0---0-0-0-0---0-0-0-0---0-0-3-0---0-0-0-0---0-|
                                                                              

eb|--0-0-0-0-0---0-0-0-0---0-0-0-0---0-0-0-0---0-0-0-0-----------------------|
Bb|--0-0-0-0-0---1-1-1-1---0-0-3-0---3-3-3-3---0-0-0-0-----------------------|
Gb|--0-2-0-2-0---0-0-0-0---0-2-0-4---0-0-0-0---2-2-2-2-----------------------|
Db|--2-2-2-2-2---2-2-2-2---2-4-0-4---2-2-2-2---2-2-2-2-----------------------|
Ab|--2-0-2-0-2---3-3-3-3---2-0-2-2---3-3-3-3---0-0-0-0-----------------------|
Eb|--0-0-0-0-0---0-0-0-0---0-0-3-0---0-0-0-0---0-0-0-0-----------------------|
                                                                                    

eb|--0-0-0-0---0-0-0-0---0-0-0-0-0---0-0-0-0---0-0-0-0---0-0-0-0---0-0-0-0---|
Bb|--1-1-1-1---0-0-3-0---3-3-3-3-3---0-0-3-0---3-3-3-3---0-0-3-0---3-3-3-3---|
Gb|--0-0-0-0---0-2-0-4---0-0-0-0-0---0-2-0-4---0-0-0-0---0-2-0-4---0-0-0-0---|
Db|--2-2-2-2---2-4-0-4---2-2-2-2-2---2-4-0-4---2-2-2-2---2-4-0-4---2-2-2-2---|
Ab|--3-3-3-3---2-0-2-2---3-3-3-3-3---2-0-2-2---3-3-3-3---2-0-2-2---3-3-3-3---|
Eb|--0-0-0-0---0-0-3-0---0-0-0-0-0---0-0-3-0---0-0-0-0---0-0-3-0---0-0-0-0---|
                                                                              

eb|--0-0-0-0---0-0-0-0---0---------------------------------------------------|
Bb|--0-0-3-0---3-3-3-3---0---------------------------------------------------|
Gb|--0-2-0-4---0-0-0-0---2---------------------------------------------------|
Db|--2-4-0-4---2-2-2-2---2------------5---7---5---5---5---7---5---5----------|
Ab|--2-0-2-2---3-3-3-3---0------------7---7---3---5---7---7---3---5----------|
Eb|--0-0-3-0---0-0-0-0---0---------------------------------------------------|
 
     
Outro                                                                        
eb|--------------------------------------------------------------------------|
Bb|--------------------------------------------------------------------------|
Gb|--------------------------------------------------------------------------|
Db|---5---7---10--9----------------------------------------------------------|
Ab|--------------------------------------------------------------------------|
Eb|----------------------0(let ring)-----------------------------------------|
Comments