Blindside - Roads Chords & Tabs

 

Roads Chords & Tabs

Blindside Chords & Tabs

Version: 1 Type: Tab 0 ratings
1 star 2 stars 3 stars 4 stars 5 stars
comments

Roads Tab

this is my first tab and its probably wrong but there isnt a tab 4 
this so ya. if u have the right tab plz let me kno.
[ Tab from: http://www.guitartabs.cc/tabs/b/blindside/roads_tab.html ]
e----------------
b----------------
g----------------   x3
d---5/7-7--------
a---3/5-5-5-7----
e---------3-5----

e----------------
b----------------
g----------------   
d---5/7-7--------
a---3/5-5-7-5----
e---------5-3----

Blindside "roads"
Comments