Blindside - Pitiful Chords & Tabs

 

Pitiful Chords & Tabs

Blindside Chords & Tabs

Version: 2 Type: Bass Tab 0 ratings
1 star 2 stars 3 stars 4 stars 5 stars
comments

Pitiful Bass Tab

   
Song: Pitiful
Artist: Blindside
Album: Silence
Tabbed By: Corey Lanier (HappyG@heroshima.zzn.com)

This is a rather easy song to play.  Enjoy!

Legend: *(Let note ring)

TUNING (Dropped D: DADG)

Intro: 2x

G|------------------------------
D|------------------------------
A|------------------------------
D|-2--2-0-5--5-0-2--2-0-5-0-2-0-

Verse: 9x

G|----------------
D|----------------
A|------2--2-1--1-
D|-2*-2-----------

Verse (Lead In To Chorus): 1x

G|----------------------
D|----------------------
A|-------2--2-5-5-------
D|-2*-2-----------0-5-0-

Chorus: 2x

G|-----------------------------------------------------------
D|-2--2-2-2--2-2---------------------------------------------
A|---------------5--5-5-5-------2--2-2-2--2-2-1--1-1-1-------
D|------------------------0-5-0------------------------0-5-0-

Verse: 9x

G|----------------
D|----------------
A|------2--2-1--1-
D|-2*-2-----------

Verse (Lead In To Chorus): 1x

G|----------------------
D|----------------------
A|-------2--2-5-5-------
D|-2*-2-----------0-5-0-

Chorus: 2x
[ Tab from: http://www.guitartabs.cc/tabs/b/blindside/pitiful_btab_ver_2.html ]
G|-----------------------------------------------------------
D|-2--2-2-2--2-2---------------------------------------------
A|---------------5--5-5-5-------2--2-2-2--2-2-1--1-1-1-------
D|------------------------0-5-0------------------------0-5-0-

Fill: 2x

G|---------------------------------------------------------
D|---------------------------------------------------------
A|---------------------------------------------------------
D|-2-2-2-2-2-2-5-5-5-5-5-5-5-5-1-1-1-1-1-1-0-0-0-0-0-0-0-0-

Bridge: 3x

G|-----------------------
D|-----------------------
A|-----------0-0*-2-2-1*-
D|-2-2*-5-5*-------------

Stop playing at beginning of chorus come in playing this: 1x

G|------------------------------------
D|------------------------------------
A|-------2--2-2-2--2-2-1--1-1-1-------
D|-0-5-0------------------------0-5-0-

Chorus: 3x

G|-----------------------------------------------------------
D|-2--2-2-2--2-2---------------------------------------------
A|---------------5--5-5-5-------2--2-2-2--2-2-1--1-1-1-------
D|------------------------0-5-0------------------------0-5-0-

End: 1x

G|----
D|----
A|----
D|-2*-

Any ?s, comments, corrections, e-mail me.  God Bless!
Comments