Blindside - Hooray Its La Chords & Tabs

 

Hooray Its La Chords & Tabs

Blindside Chords & Tabs

Version: 1 Type: Tab 0 ratings
1 star 2 stars 3 stars 4 stars 5 stars
comments

Hooray Its La Tab

Hooray It's L.A.
by: Blindside
Any questions email me at excalibur627@hotmail.com

Standard Tuning (EADGBe but a drop-D making it a low E makes it extremely easy to play)


Intro:
|----------|
|----------|
|----------|
|-7-7------|
|-7-7------|
|-5-5------|


Main Riff repeated through verse and intro:
|------------|
|-----6b x6--|*on the sixth time return 6br
|------------|
|------------|
|-2-2--------|
|-0-0--------|
[ Tab from: http://www.guitartabs.cc/tabs/b/blindside/hooray_its_la_tab.html ]
Chorus:
|---------------------|
|---------------------|
|---------------------|
|---------------------|
|-4-4-4-2-4-5-4-2-4-4-|
|-2-2-2-0-2-3-2-0-2-2-|

|--------------------|
|--------------------|
|--------------------|
|--------------------|
|-4-2-4-4-9-7-5-7-4--|
|-2-0-2-2-7-5-3-5-2--|



Solo: 
|-------------------------------|
|--5b-5-5-5-5-5-5-5-3-5-6-5-3-2-|
|-------------------------------|
|-------------------------------|
|-------------------------------|
|-------------------------------| x 3 or 4 times

finish solo on
|---------------|
|------6b x6----|
|---------------|
|---------------|
|-2-2-----------|
|-0-0-----------|

Repeat Chorus as necessary
Comments