Blindside - Endings Chords & Tabs

 

Endings Chords & Tabs

Blindside Chords & Tabs

Version: 1 Type: Tab 0 ratings
1 star 2 stars 3 stars 4 stars 5 stars
comments

Endings Tab

   
-----------------------------------------------------------------------------
                   "THE ENDINGS"    BLINDSIDE
-----------------------------------------------------------------------------
Tabbed by: Jarrod Leathem
Email: wakefield49@gmail.com
Tuning: Drop D (D,A,D,G,B,E)

INTRO / VERSE:

 e|-------------------------------------------------------------------------|
B|--------------------------------------------------------------------------|
G|--------------------------------------------------------------------------|
D|--1----1------------(0/1)--(1)--(1)----------------------(0/1)--(1)--(1)--|
A|--1----1------------(0/1)--(1)--(1)----------------------(0/1)--(1)--(1)--|
D|--1----1------------(0/1)--(1)--(1)----------------------(0/1)--(1)--(1)--|

 e|------------------------------------|
B|-------------------------------------|
G|-------------------------------------|
D|--1----1------------(0/1)--(1)--(1)--|
A|--1----1------------(0/1)--(1)--(1)--|
D|--1----1------------(0/1)--(1)--(1)--|


PRE-CHORUS:

 e|-----------------------------------------------------------------------------|
B|------------------------------------------------------------------------------|
G|------------------------------------------------------------------------------|
D|--4\3--4\3--4\3---------------------------------------------------------------|
A|--2\1--2\1--2\1---------------------------------------------------------------|
D|------------------------------------------------------------------------------|

CHORUS:

 e|-----------------------------------------------------------------------------|
B|------------------------------------------------------------------------------|
G|------------------------------------------------------------------------------|
D|--9--9--9--9--9--9--9--9--9--9--9--9------------------------------------------|
A|--9--9--9--9--9--9--9--9--9--9--9--9------------------------------------------|
D|--9--9--9--9--9--9--9--9--9--9--9--9------------------------------------------|

 e|-----------------------------------------------------------------------------|
B|------------------------------------------------------------------------------|
G|------------------------------------------------------------------------------|
D|--6--6--6--6--6--6--6--6--6--6--6--6--4---------------------------------------|
A|--6--6--6--6--6--6--6--6--6--6--6--6--4---------------------------------------|
D|--6--6--6--6--6--6--6--6--6--6--6--6--4---------------------------------------|

 e|-----------------------------------------------------------------------------------------------|
B|------------------------------------------------------------------------------------------------|
G|------------------------------------------------------------------------------------------------|
D|--6/7--7--7--7--7--7--7--7--7--7--7--7--7/9--9--9--9--9--9--9--9--9--9--9--9---9------4------2--|
A|--6/7--7--7--7--7--7--7--7--7--7--7--7--7/9--9--9--9--9--9--9--9--9--9--9--9---9------4------2--|
D|--6/7--7--7--7--7--7--7--7--7--7--7--7--7/9--9--9--9--9--9--9--9--9--9--9--9---9------4------2--|
[ Tab from: http://www.guitartabs.cc/tabs/b/blindside/endings_tab.html ]
 e|----------------------------------------------------------------------------------|
B|-----------------------------------------------------------------------------------|
G|-----------------------------------------------------------------------------------|
D|--2--2--2--2--2--2--2--2--2--2--2--2/6--6--6--6--6--6--6--6--6--6--6--6----4----2--|
A|--2--2--2--2--2--2--2--2--2--2--2--2/6--6--6--6--6--6--6--6--6--6--6--6----4----2--|
D|--2--2--2--2--2--2--2--2--2--2--2--2/6--6--6--6--6--6--6--6--6--6--6--6----4----2--|

 e|----------------------------------------------------------------------------------------|
B|-----------------------------------------------------------------------------------------|
G|-----------------------------------------------------------------------------------------|
D|--6/7--7--7--7--7--7--7--7--7--7--7--7/9--9--9--9--9--9--9--9--9--9--9--9------4------2--|
A|--6/7--7--7--7--7--7--7--7--7--7--7--7/9--9--9--9--9--9--9--9--9--9--9--9------4------2--|
D|--6/7--7--7--7--7--7--7--7--7--7--7--7/9--9--9--9--9--9--9--9--9--9--9--9------4------2--|

 e|-----------------------------------------------------------------------------|
B|------------------------------------------------------------------------------|
G|------------------------------------------------------------------------------|
D|--2--2--2--2--2--2--2--2--2--2--2--2------------------------------------------|
A|--2--2--2--2--2--2--2--2--2--2--2--2------------------------------------------|
D|--2--2--2--2--2--2--2--2--2--2--2--2------------------------------------------|

FILL (GUITAR 2; PLAYED DURING 2ND VERSE)
 e|-----------------------------------------------------------------------------------------------------------|
B|------------------------------------------------------------------------------------------------------------|
G|---------------------------------------------------------------------------(9)-(9)-(9)-(9)-(9)-(9)-(9)-(9)--|
D|---------------------------------------------------------------------------(9)-(9)-(9)-(9)-(9)-(9)-(9)-(9)--|
A|--(7)-(7)-(7)-(7)-(7)-(7)-(7)-(7)--(9)-(9)-(9)-(9)-(9)-(9)-(9)-(9)------------------------------------------|
D|--(7)-(7)-(7)-(7)-(7)-(7)-(7)-(7)--(9)-(9)-(9)-(9)-(9)-(9)-(9)-(9)------------------------------------------|

SOLO (LEAD)

 e|---------------------------------------------|
B|----------------------------------------------|
G|----------------------------------------------|
D|---------4-3-0-4~~~~~-------------------------|
A|-6-6-6-------------------6~-------------------|
D|----------------------------------------------|

SOLO (RYTHYM)

 e|-----------------------------------------------------------------------------|
B|------------------------------------------------------------------------------|
G|------------------------------------------------------------------------------|
D|--1-1---1-4-3---1-4--------4-3---0-1------------------------------------------|
A|--1-1---1-4-3---1-4--------4-3---0-1------------------------------------------|
D|--1-1---1-4-3---1-4--------4-3---0-1---------------------------------|  :-----| (x4)

 e|-------------------|
B|--------------------|
G|--------------------|
D|--/4----------------|
A|--/4----------------|
D|--/4----------------| (4th time: Let ring, then slide up like this)


| /  slide up
| \  slide down
| h  hammer-on
| p  pull-off
| ~  vibrato
| +  harmonic
| x  Mute note
===============================================================================

Email me for any other Blindside Requests-I am working on the new album when I have time.  I will try to
figure out the most wanteds first if there are any..
Comments