Blindside - Cute Boring Love Chords & Tabs

 

Cute Boring Love Chords & Tabs

Blindside Chords & Tabs

Version: 1 Type: Bass Tab 0 ratings
1 star 2 stars 3 stars 4 stars 5 stars
comments

Cute Boring Love Bass Tab

   
Blindside - Cute Boring Love
Submitted By: Stand Alone (projectwyze13@hotmail.com)

Tuning: Drop D - D A D G

Intro:
G|---------------------------------------------------|
D|---------------------------------------------------|
A|------------12---1---------------------------------|
D|--1------6-----------4-----------------------------|

Verse:
G|---------------------------------------------------|
D|---------------------------------------------------|
A|----------1-----1---2-2-2-2-1-2-1------------------|
D|--1-1-1---1-1---1----------------------------------|

Chorus:
G|---------------------------------------------------|
D|---------------------------------------------------|
A|--6-6-4-6-1---222-111------------------------------|
D|----------------------------4----------------------|
[ Tab from: http://www.guitartabs.cc/tabs/b/blindside/cute_boring_love_btab.html ]
G|---------------------------------------------------|
D|---------------------------------------------------|
A|--1------444-222-11--------------------------------|
D|-------------------------4-------------------------|

G|---------------------------------------------------|
D|---------------------------------------------------|
A|--12--6--------------------------------------------|
D|---------------------------------------------------|

Bridge:
G|---------------------------------------------------|
D|---------------------------------------------------|
A|---------2-----4-----2-----------------------------|
D|--1------------------------------------------------|

G|---------------------------------------------------|
D|---------------------------------------------------|
A|---------------------------------------------------|
D|--11--------11--------11---11-----11---11---11-11--|
Comments