Blindside - Caught A Glimpse Chords & Tabs

 

Caught A Glimpse Chords & Tabs

Blindside Chords & Tabs

Version: 4 Type: Tab 0 ratings
1 star 2 stars 3 stars 4 stars 5 stars
comments

Caught A Glimpse Tab

Tabbed by Uriel Garcia if u want more tabs e-mail me at zidjiang@hotmail.com

Intro only
[ Tab from: http://www.guitartabs.cc/tabs/b/blindside/caught_a_glimpse_tab_ver_4.html ]
E--------------------------------
B--------------------------------
G--------------------------------
D--------6-7-4-6-6-6-6-----------
A--7-6-4--------4-4-4------------
E--------------------------------


E--------------------------------
B--------------------------------
G--------------------------------
D--------6--7-/11-11-------------
A--7-6-4--4----------------------
E--------------------------------

dedicated to my girlfriend Amber who i love so much!
Comments