Blindside - Caught A Glimpse Chords & Tabs

 

Caught A Glimpse Chords & Tabs

Blindside Chords & Tabs

Version: 1 Type: Tab 0 ratings
1 star 2 stars 3 stars 4 stars 5 stars
comments

Caught A Glimpse Tab

Blindside- “Caught A Glimpse”
From The Forthcoming Album- Silence
2002 Elektra Entertainment

This is another great song on the soon to be released album Silence.  I hadn’t seen this one up yet either so I decided to give it a shot too.  Enjoy and God Bless.

INTRO-  1x

E--------------------------------------------------------------------------------------------------------
B--------------------------------------------------------------------------------------------------------
G--------------------------------------------------------------------------------------------------------
D---------------6--77--44---6-----6-----6-----6----------------6--7—7\11--11-----11-----11
A---7--6--44--------------------4-----4-----4-------7--6--44-----------------------8-------8---
E-------------------------------------------------------------------------------------------------------

VERSE-  4x

E-------------------------------------------------------               { } = Strum
B-------------------------------------------------------
G-----------------6--7--11---{10}-------------------
D-6p5---3--0---x--x--x-----{x}---------------------
A-6p5---3--0---4--5--9-----{8}--------------------
E-6p5---3--0-----------------------------------------

PRE-CHORUS-  1X

E---------------------------------------------------
B---------------------------------------------------
G---------------------------------------------------
D---6\7/6--6-6--4--2---0--LET----------------
A---6\7/6--6-6--4--2---0-------RING---------
E—4\5/4--4-4--2--0---0------------------------

CHORUS

E---------------------------------------------------------------------------------
B---------------------------------------------------------------------------------
G-{13}---14---11---PLAY----------------------------PLAY---------------
D-{X}-----X----X----PRE-CHORUS---{7}—{9}---PRE-CHORUS--
A-{11}---12----9---------------------------{7}—{9}-------------------------
E---------------------------------------------{5]---{7}--------------------------

CHORUS CONT….

E------------------------------------------------------------------------------------------------------
B------------------------------------------------------------------------------------------------------
G-{13}---14--11---PLAY ------------------------------------------------------------------------
D-{X}-----X---X----PRE-CHORUS---6\7--7--7---7/6---6---6\9----4---LET-------------
A-{11}---12---9---------------------------6\7--7--7---7/6---6---6\9----4---RING-----------
E--------------------------------------------4\5--5--5---5/4---4---4\7----2----------------------

INTRO-  1X

VERSE- PLAY THE SAME VERSE AS USUAL THE 1ST 2ND AND 4TH TIMES BUT ON THE THIRD TIME ROUND PLAY THIS AFTER STRUMMING THE OCTAVE CHORD (CUT THE STRUM OFF SHORT TO MAKE THIS FLOW RIGHT INTO THE NEXT VERSE GO ROUND)
[ Tab from: http://www.guitartabs.cc/tabs/b/blindside/caught_a_glimpse_tab.html ]
E---------------------------------------------------------    NOTE: THIS PART PROBABLY 
B---------------------------------------------------------    ISN’T PERFECT, SO FEEL   
G---------------------------------------------------------    FREE TO POST THE 
D---------------------------------------------------------    CORRECTION.
A--5--7--6--4—4/2—1p0---------------------------
E---------------------------------------------------------

PRE-CHORUS-  1X

CHORUS-  1X  PLAY THE SAME AS FIRST CHORUS EXCEPT END THE                          
                          CHORUS BY STRUMMING THE  7   &    9  CHORDS RIGHT 
                          INTO…..                                        7          9 
                                                                                5          7  
 

1ST BRIDGE PIECE- 1X                     (2:12- 2:26)

E---------------------------------------------------------------------------------------------
B---------------------------------------------------------------------------------------------
G-------{6}-------------------------------------------------------------------SLIDE-------
D--0---{X}---{7}---------5--5--XX—{4}---5--5---XX-----{4}---{7}/-- DOWN-----
A--0—{4}---{7}---------5--5---XX—{4}---5--5---XX----{4}----{7}/--TO END----
E--0----------{5}---------3--3---XX—{2}---3--3---XX---{2}-----{5}/-----------------

2ND BRIDGE PIECE-   Lead Guitar                        (2:26- 2:40)

E----------------------------------------------------------------------------------------   *= PLAY
B----------------------------------------------------------------------------------------        ALOT
G--/8--9---{11}---*8h9*-----9h11—9h11—9h11----6------------------------
D-----------------------------------------------------------------7--5--2--------------
A-----------------------------------------------------------------7--5--2--------------
E-----------------------------------------------------------------5--3--0--------------

2nd BRIDGE PIECE-  Rhythm Guitar

E----------------------------------------------------------------------------------
B----------------------------------------------------------------------------------
G----------------------------------------------------------------------------------
D—{3]---{4}------5--5--xx---{4}--5--5--xx---{4}--5--5--xx---{4}--------
A---{3}---{4}------5--5--xx---{4}--5--5--xx---{4}--5--5--xx---{4}--------
E—{1}---{2}------3--3--xx—{2}--3--3--xx---{2}--3--3--xx—{2}--------

CHORUS-  1X

OUTRO

E---------------------------------------------------------------------------------------------------------
B---------------------------------------------------------------------------------------------------------
G--------------3X---RHYTHM—THEN PLAYS----------------------------------8--9--13-----
D—{7}—{9}--------PRE-CHORUS-----------------WHILE LEAD-ENDS-------------------
A—{7}—{9}----------------------------------------------ON THIS----------------------------------
E—{5}—{7}--------------------------------------------------------------------------------------------

I think that is finally it, if you have any corrections please e-mail me at barr106@hotmail.com and most importantly always know that JESUS LOVES YOU.


Comments