Blindside - As You Walk Chords & Tabs

 

As You Walk Chords & Tabs

Blindside Chords & Tabs

Version: 1 Type: Tab 0 ratings
1 star 2 stars 3 stars 4 stars 5 stars
comments

As You Walk Tab

Standard Tuning

(Verse)
e|--------------------------------------------------------|
B|--------------------------------------------------------|
G|--9-9-9-9-10-5------------------------------------------|
D|--9-9-9-9-10-5------------------------------------------|
A|--7-7-7-7--8-3------------------------------------------|
E|--------------------------------------------------------|

(Chorus)
e|--------------------------------------------------------|
B|--------------------------------------------------------|
G|--------------------------------------------------------|
D|--5/6-5/6-5/6-5/6--5/6-5/6-5/6-5/6--4--5/6-5/6-5/6-5/6--|
A|--5/6-5/6-5/6-5/6--5/6-5/6-5/6-5/6--4--5/6-5/6-5/6-5/6--|
E|--3/4-3/4-3/4-3/4--3/4-3/4-3/4-3/4--2--3/4-3/4-3/4-3/4--|

e|---------------------x-x-x-x----------------------------|
B|---------------------x-x-x-x----------------------------|
G|---------------------x-x-x-x----------------------------|
D|--7-5/6-5/6-5/6-5/6--x-x-x-x----------------------------|
A|--7-5/6-5/6-5/6-5/6--x-x-x-x----------------------------|
E|--5-3/4-3/4-3/4-3/4--x-x-x-x----------------------------|
[ Tab from: http://www.guitartabs.cc/tabs/b/blindside/as_you_walk_tab.html ]
(Pre chorus)
e|--------------------------------------------------------|
B|--------------------------------------------------------|
G|--9~--10-7~---------------------------------------------|
D|--9~--10-7----------------------------------------------|
A|--7~---8-5~---5/11\5------------------------------------|
E|--------------------------------------------------------|

(Bridge)
e|--------------------------------------------------------|
B|-------------------------7------------------------------|
G|--5-----------------------------------------------------|
D|------5----------5--------------------------------------|
A|-----------5--------------------------------------------|
E|--------------------------------------------------------|

e|--------------------------------------------------------|
B|--------------------------------------------------------|
G|----9---------------------------------------------------|
D|-7--9--8--9--5-6----------------------------------------|
A|-7--7--8--9--5-6----------------------------------------|
E|-5-----6--7--3-4----------------------------------------|

(Outro)
e|--------------------------------------------------------|
B|-9-9-9-9-10-7-7-7-7-7-----------------------------------|
G|-8-8-8-8--9-6-6-6-6-6-----------------------------------|
D|--------------------------------------------------------|
A|--------------------------------------------------------|
E|--------------------------------------------------------|

Thanks, please rate it after you learn it.
Comments