Blindside - All Of Us Chords & Tabs

 

All Of Us Chords & Tabs

Blindside Chords & Tabs

Version: 4 Type: Tab 0 ratings
1 star 2 stars 3 stars 4 stars 5 stars
comments

All Of Us Tab

   
-----------------------------------------------------------------------------
			    All of Us  - Blindside 
-----------------------------------------------------------------------------
Tabbed by:Haley ( thanx to my teacher )
Email:Acdc9790@aol
their timing is really strange but once you listen to the song you should be
able to get it down not a hard song but still awesome . im 99% sure this is
perfect im 100% sure its better than the other tabs of the song though. rock on
there is two guitars but im combining this for 1

tuning drop d 

 
intro 
e|-----------------------------------------------------------------------|
b|-----------------------------------------------------------------------|
g|--------------------10--10----------------------------------------15-14|
d|----7-7-7-7-7-7-7-7----7--7-7-7-7-7--5-5-5-5-5-5-5--8-8-8-8-12-12------|
a|-----------------------------------------------------------------------|   
d|-----------------------------------------------------------------------|
    when you play this the second time around bend the first (5) and 
    only hit the first (10)

e|-------------------------------------------------------------------|
b|-------------------------------------------------------------------|
g|----------------------------------------------------------15-14----|
d|----7-7-7-7-7-7-7-7--7777777555558888121212777777555588812---------|
a|-------------------00----------------------------------------------|  
d|-------------------00----------------------------------------------|



chorus
e|-------------------------------------------------|
b|-------------------------------------------------|
g|---------------------------------------------12b-|
d|-10-----------------------------------10---------|
a|--8-x12--3-5-7-8--8----------3-2------8--x8------|
d|------------------------8-x8-3-2-----------------|
[ Tab from: http://www.guitartabs.cc/tabs/b/blindside/all_of_us_tab_ver_4.html ]
repeat intro 
repeat chorus
after second chorus play this - 

e|---------------------------------------------------------------|
b|---------------------------------------------------------------|
g|---------------------------------------------------------------|
d|---------------------------------------------------------------|
a|-77777777-333--22222-------------------------------------------|
d|-77777777-333--22222-------------------------------------------|
    ( when it's the same old word given me the spark )

e|---------------------------------------------|
b|---------------------------------------------|
g|------------------------------------12b------|
d|10----------------------------10-------------|
a|-8-x8-8-7-5-3-88888888-333222--8-x8----------|
d|--------------88888888-333222----------------|

  bridge
e|-------------------------------------------------------------------------|
b|---------------------------------------------------11b rb p10 12b--------|
g|--10x16--9999999/12121212\77777/10x16\9----------------------------------|
d|-------------------------------------------------------------------------|
a|-------------------------------------------------------------------------|
d-------------------------------------------2/12\2~~~~~~-------------------|
   ( i wash my wounds .....)

 chorus again 
 ( when its the same words )
for the outro play the chorus .. yes yes i know the chorus again 
and finally 
end here ...

e|--------------------------------------|
b|--------------------------------------|
g|-----------------------------12b------|
d|--------------------------------------|
a|--------------------------------------|
d|--------------------------------------|

enjoy

| /  slide up
| \  slide down
| h  hammer-on
| p  pull-off
| ~  vibrato
| +  harmonic
| x  Mute note
| b  bend
| rb release bend
Comments