Blindside - All Of Us Chords & Tabs

 

All Of Us Chords & Tabs

Blindside Chords & Tabs

Version: 2 Type: Tab 0 ratings
1 star 2 stars 3 stars 4 stars 5 stars
comments

All Of Us Tab

Intro/Verse
Guitar 1
E|------------------------------------------------|
B|------------------------------------------------|
G|------------------------------------------------|
D|--7777777777777777---5555~555---8888-12121212---|
A|------------------------------------------------|
E|------------------------------------------------|

E|------------------------------------------------|
B|---------6-6------------------------------------|
G|------------------------------------------------|
D|--7777777-7-777777----5555~555---8888-8-10-12B14|
A|------------------------------------------------|
E|------------------------------------------------|
[ Tab from: http://www.guitartabs.cc/tabs/b/blindside/all_of_us_tab_ver_2.html ]
E|------------------------------------------------|
B|-----------------------------------6------------|
G|------------------------------------------------|
D|--7777777777777777----5555555----88-8/12--------|
A|------------------------------------------------|
E|------------------------------------------------|

E|------------------------------------------------|
B|------------------------------------------------|
G|------------------------------------------------|
D|--7777777777777777---5555~555---8888-12121212---|
A|------------------------------------------------|
E|------------------------------------------------|

E|------------------------------------------------|
B|-----------------------------------10-11-----12-|
G|-------------------------------------------12---|
D|--7777777777777777---5555~555---88-------12-----|
A|------------------------------------------------|
E|------------------------------------------------|
Comments