Blindside - All Of Us Chords & Tabs

 

All Of Us Chords & Tabs

Blindside Chords & Tabs

Version: 1 Type: Tab 0 ratings
1 star 2 stars 3 stars 4 stars 5 stars
comments

All Of Us Tab

   
This is my 2nd tab so bear with me, but it sounds pretty accurate. 
If you have anything to tell me, just email me at xdeftonedx@hotmail.com

This song kicks ass man!
~ = bend/ghost bend

standard tuning

INTRO/VERSE  0:00 -  0:50
E |----------------------------------------------------|
B |----------------------------------------------------|
G |-4-44444444444-2222~225-55559999--------------------|X5
D |----------------------------------------------------|
A |----------------------------------------------------|
E |----------------------------------------------------|

CHORUS  0:51 - 1:25
E |----------------------------------------------------|
B |----------------------------------------------------|
G |---4444444444444567444444444444345-567-------------|
D |---2222222222222345222222222222123-345-------------|
A |----------------------------------------------------|
E |----------------------------------------------------|

E |----------------------------------------------------|
B |-----------------11~~ ------------------------------|
G |---4444444444444-------333333333333345-567----------|
D |---2222222222222-------111111111111123-345----------|
A |----------------------------------------------------|
E |----------------------------------------------------|

E |----------------------------------------------------|
B |----------------------------------------------------|
G |---4444444444444320-333333333333345-567-------------|
D |---2222222222222210-111111111111123-345-------------|
A |----------------------------------------------------|
E |----------------------------------------------------|

E |----------------------------------------------------|
B |-----------------11~~ ------------------------------|
G |---4444444444444------------------------------------|
D |---2222222222222------------------------------------|
A |----------------------------------------------------|
E |----------------------------------------------------|





VERSE   1:26 - 1:56
E |----------------------------------------------------|
B |----------------------------------------------------|
G |-4-44444444444-2222~225-55559999--------------------|X3
D |----------------------------------------------------|
A |----------------------------------------------------|
E |----------------------------------------------------|


CHORUS   1:57 - 2:32
E |----------------------------------------------------|
B |----------------------------------------------------|
G |---4444444444444567444444444444345-567-------------|
D |---2222222222222345222222222222123-345-------------|
A |----------------------------------------------------|
E |----------------------------------------------------|
[ Tab from: http://www.guitartabs.cc/tabs/b/blindside/all_of_us_tab.html ]
E |----------------------------------------------------|
B |------------------11~~ -----------------------------|
G |---4444444444444---------333333333333345-567--------|
D |---2222222222222---------111111111111123-345--------|
A |----------------------------------------------------|
E |----------------------------------------------------|

E |----------------------------------------------------|
B |----------------------------------------------------|
G |---4444444444444320-333333333333345-567-------------|
D |---2222222222222210-111111111111123-345-------------|
A |----------------------------------------------------|
E |----------------------------------------------------|

E |----------------------------------------------------|
B |------------------11~~~~~---------------------------|
G |---4444444444444------------------------------------|
D |---2222222222222------------------------------------|
A |----------------------------------------------------|
E |----------------------------------------------------|







VERSE2  2:33 - 2:52
E |---------------------------------------------------|
B |---------------------------------------------------|
G |---44444444444444442222222255553333----------------|     
D |---------------------------------------------------|
A |---------------------------------------------------|
E |---------------------------------------------------|

E |---------------------------------------------------|
B |---------------------------------------------------|
G |---4444444444444444--------12~~ -14~~~-------------|
D |---------------------------------------------------| 
A |---------------------------------------------------|
E |---------------------3~~~ -------------------------|


CHORUS  2:53 - 3:32
E |---------------------------------------------------|
B |---------------------------------------------------|
G |---4444444444567444444444345-567------------------|
D |---2222222222345222222222123-345------------------|
A |---------------------------------------------------|
E |---------------------------------------------------|

E |---------------------------------------------------|
B |--------------11~~~~ ------------------------------|
G |---4444444444----------333333333345-567------------|
D |---2222222222----------111111111123-345------------|
A |---------------------------------------------------|
E |---------------------------------------------------|

E |---------------------------------------------------|
B |---------------------------------------------------|
G |---4444444444320--333333333345-567-----------------|
D |---2222222222210--111111111123-345-----------------|
A |---------------------------------------------------|
E |---------------------------------------------------|

E |---------------------------------------------------|
B |--------------11~~~~~ -----------------------------|
G |---4444444444--------------------------------------|
D |---2222222222--------------------------------------|
A |---------------------------------------------------|
E |---------------------------------------------------|

All right thats it, hope u found it helpful. I'm still not sure about the tuning
I've also seen in Eb Ab Db Gb Bb Eb and C G C F A D, but this one sounds the closest.
Comments