Blinded Xero - The Pingas Song Chords & Tabs

 

The Pingas Song Chords & Tabs

Blinded Xero Chords & Tabs

Version: 1 Type: Bass Tab 0 ratings
1 star 2 stars 3 stars 4 stars 5 stars
comments

The Pingas Song Bass Tab

Artist: Blinded Xero
Song: Love RuLz/SuX

INTRO:
G|-----------------------------------|
D|---9---9---7---7---5---5---7---7---|
A|-7---7---5---5---3---3---5---5-----|
E|-----------------------------------|

VERSE
G|-----------------------------------|
D|---9---9---7---7---5---5---7---7---|
A|-7---7---5---5---3---3---5---5-----|
E|-----------------------------------|
[ Tab from: http://www.guitartabs.cc/tabs/b/blinded_xero/the_pingas_song_btab.html ]
CHORUS
G|------------------------------------------------------------------|
D|------------------------------------------------------------------|
A|-7-7-7-7-7-7-7-7-3-3-3-3-3-3-3-3-----------------5-5-5-5-5-5-5-5--|
E|---------------------------------3-3-3-3-3-3-3-3------------------|

INTERLUDE
G|-------------------------------------|
D|--------------9-7-5--5--5--5-5--7-9--|
A|-7--7--7--7-7------------------------|
E|-------------------------------------|

OUTRO
G|------------------------------------------------------------------|
D|------------------------------------------------------------------|
A|-7-7-7-7-7-7-7-7-3-3-3-3-3-3-3-3-----------------5-5-5-5-5-5-5-5--|
E|---------------------------------3-3-3-3-3-3-3-3------------------|
Comments