Blind Witness - Of Them All Chords & Tabs

 

Of Them All Chords & Tabs

Blind Witness Chords & Tabs

Version: 1 Type: Tab 0 ratings
1 star 2 stars 3 stars 4 stars 5 stars
comments

Of Them All Tab

Intro  / \= Harmonics  *= Vibrato .= Palm Muted  ^= Trem Picking
	!= Wammy Bar
d-------------------------------|-----------------------|--------|---|
a-------------------------------|-----------------------|--------|---|
f-------------------------------|-----------------------|--------|---|
c:-----------------------------:|:-5---------------8-7-:|-------:|-7-|
g-5-7-8-7---7-8-7---7-8-7--7-8-7|-5--8-7---7-8-7-------8|--7-8-7-|-7-|
d---------8-------6-------5-----|--------8-------6------|-5------|-5-|
  . . . . . . . . . . . . .. . .         . . . . .        .. . .
Chorus
d---------------------------------------------------|
a---------------------------------------------------|
f:-------------------------------------------------:|
c-12--12-12-12--8--8-8-8--15--15-15-15-10--10-10-10-|
g-12--12-12-12--8--8-8-8--15--15-15-15-10--10-10-10-|
d-10--10-10-10/-6--6-6-6\-13--13-13-13/-8---8--8--8-|

Repeat Measure 1 of intro
Repeat Measure 2 with first ending of Intro 4 times For verse then...
   Interlude
d-------------------|----------------------|--------------------|                      
a-------------------|----------------------|--------------------|
f-------------------|Back to chorus 2 times|Verse with Interlude|
c----8-7------------|----------------------|--------------------|
g--------8-7--------|----------------------|--------------------|
d-/5\--------8-6-5*-|----------------------|--------------------|

Then you go to bridge which is the chorus chords played really fast 
palm muted. Play it twice then play this...
      
	   Riff 1
d-----------------------------------------------------------|
a-----------------------------------------------------------|
f-----------------------------------------------------------|x1 alone
c-12-12xxxx12-12--------------------------------------------|
g-12-12xxxx12-12 Do this same pattern with-the--------------|
d-10-10xxxx10-10-------other-chorus-chords------------------|
|         Riff 2					     
d--------------------------------------------|
a--------------------------------------------|
f-------12b-----12b-------12b-------12b------|         x2 together
c-12-12-----8-8-----15-15-----10-10----------|
g-12-12-----8-8-----15-15-----10-10----------|
d-10-10-----6-6-----13-13------8--8----------|

After you play Riff 1&2 together then Guitar 1&2 goe to the 
Bridge while Guitar 3 plays solo!!
[ Tab from: http://www.guitartabs.cc/tabs/b/blind_witness/of_them_all_tab.html ]
           Solo                                    1st ending
d-10*10*-8-10-8-------8-10/-13*13*-11-13-11----|-11-13-11-----------|
a--------------11*11*-----------------------13*|----------13-11-----|
f----------------------------------------------|----------------12\-|
c:---------------------------------------------|-------------------:|
g----------------------------------------------|--------------------|
d----------------------------------------------|--------------------|
  ^  ^  ^  ^  ^ ^  ^  ^ ^    ^ ^    ^  ^  ^  ^
	2nd ending plus rest of solo
d-11-13-11-----------------------------------------------10-----|
a----------13-11------------13b-13b-------------------10----13*-|
f----------------12-10---10-12b-12b-/101210\----10-12-----------|
c----------------------12--------------------12*----------------|
g---------------------------------------------------------------|
d---------------------------------------------------------------|

d-11-13-11----11-13/-16*-15*----------15-16/18*-/151615\--------|
a----------13---------------16-15-16*--------------------16-15--|
f---------------------------------------------------------------|
c---------------------------------------------------------------|
g---------------------------------------------------------------|
d---------------------------------------------------------------|

d---13*--11*---/111311\---/111311\---/111311\----/111311\--/111311\--|
a-13---11---13----------13---------13---------13---------13--------13|
f--------------------------------------------------------------------|
c--------------------------------------------------------------------|
g--------------------------------------------------------------------|
d--------------------------------------------------------------------|

d-/111311\---/111311\---/111311\---/111311\---/111311\-----11-13/-16b|
a---------13---------13---------13---------13----------13*-----------|
f--------------------------------------------------------------------|
c--------------------------------------------------------------------|
g--------------------------------------------------------------------|
d--------------------------------------------------------------------|

d-16b-16b-16b-16b!!!-/131516\----/131513\----/111311\--------------|
a-----------------------------15----------15----------13-11--------|
f-----------------------------------------------------------12-10--|
c------------------------------------------------------------------|
g------------------------------------------------------------------|
d------------------------------------------------------------------|

d-------------------------------------------11-13/-18b20-20-20-20-20!|
a-------------------------------------11-13--------------------------|
f----------------------------10-12-13--------------------------------|
c-12-10--------------10-12-13----------------------------------------|
g-------10-8----8-10-------------------------------------------------|
d------------10!-----------------------------------------------------|

 For the Ending you play the chorus 4 times then you play the whole 
 intro part while gradually getting slower at the end of it. Then...

d-------------------------------------------------------------------|
a-------------------------------------------------------------------|
f------------2------------------------------------------------------|
c------------2 Played many times really fast--x---------------------|
g------------0--------------------------------x really fast---------|
d-Pick Slide----------------------------------x to build up feedback|
              Drums will be in background tearing it up and then.... 

d-------------------------------------------------------------------|
a-------------------------------------------------------------------|
f-------------------------------------------------------------------|
c-12\---------------------------------------------------------------|
g-12\---------------------------------------------------------------|
d-10\-pull-off-d-note-----------------------------------------------|
        Drums will hit the Crash Symbol really LOUD!!!!!
Comments