Blind Society - Mist Chords & Tabs

 

Mist Chords & Tabs

Blind Society Chords & Tabs

Version: 1 Type: Tab 0 ratings
1 star 2 stars 3 stars 4 stars 5 stars
comments

Mist Tab

Intro:  Play 2x
[ Tab from: http://www.guitartabs.cc/tabs/b/blind_society/mist_tab.html ]
E------------------------------------------------------------------|
B------------------------------------------------------------------|
G----------O--------------O----------------O---------------O-------|
D-----5--5---5--5----5--5---5--5------4--4---4--4-----4--4---4--4--|
A---7--7------7----7--7------7------5--5-------5----5--5-------5---|
D------------------------------------------------------------------|
       Play vers 2x
E-------------------------------------------------------------------|
B-------------------------------------------------------------------|
G----------o---------------o---------------o---------------o--------|
D-----4--4---4--4-----4--4---4--4-----4--4---4--4-----4--4---4------|
A---2--2-------2----2--2-------2----5--5-------5----3--3-------3~~~-|
D-------------------------------------------------------------------|
     Play chouras 2x
E-----------------------------------------------------------------|
B-----------------------------------------------------------------|
G-----------------------------------------------------------------|
D---9-9-x-9-9-9-x-12b-7-7-x-7-7-7-x-9b-5\4-5-5-5-5-5-7b-4-4-4-5-x-|
A---9-9-x-9-9-9-x-x---7-7-x-7-7-7-x-x--5\4-5-5-5-5-5-x--4-4-4-5-x-|
D---9-9-x-9-9-9-x-12b-7-7-x-7-7-7-x-9b-5\4-5-5-5-5-5-7b-4-4-4-5-x-|

E----------------|
B----------------|
G----------------|
D---4-4-5-4h5s7--|
A---4-4-5-4h5s7--|
D---4-4-5-4h5s7--|
          Play Bridge 4x
E------------------------------------------------------------------|
B------------------------------------------------------------------|
G---------o--------o------o-----o-----o-----o-----o----------o-----|
D---9--9--9--9--9--9--7-7-7-7-7-7-5-5-5-5-5-5---2---2------4---4---|
A---10-10-10-10-10-10-9-9-9-9-9-9-7-7-7-7-7-7-3--3----3--5--5----5-|
D------------------------------------------------------------------|

E--------------------|
B--------------------|
G--------------------|
D-----------o--4po---|
A-----4--4---4----4--|b
D---3--3--3---3------|

   The solo will becoming soon injoy!!
         Tabed by the guitarest ASH JONES.
Comments