Blind Melon - Pull Acoustic Chords & Tabs

 

Pull Acoustic Chords & Tabs

Blind Melon Chords & Tabs

Version: 1 Type: Tab 0 ratings
1 star 2 stars 3 stars 4 stars 5 stars
comments

Pull Acoustic Tab

Blind Melon
album: Nico (1995)
Song: Pull (acoustic)

I was very dissapointed to see that there was no tab of pull, well there was but it was 
off so i thought that i would post my version of it, this version is 100% correct.


tuning: EBEG#BE: from high to low (just an open E tuning)

intro:

E---2---0h2-0-----2----0h2---2----------------------------------------|
B---3---------3---3--------3------------------------------------------|
G#--3-------------3----------------6--6--5--0----5-6-5-0--5-6-5-0-----|
E---2-------------2----------------5----------------------------------|
B----------------------------------3-------------5--------5-----------|
E------------------------------------------------X--------X-----------|

VERSE: (played throughout the whole song)
E---2-----------------------------7----2----5-------------------------|
B---3-----------------------------7----2----5-------------------------|
G#--3-----6---5-6-5-0--5-6-5-0----7----2----5-------------------------|
E---2-----5-----------------------7----2----5--------------------3~---|
B---------3---5--------5----------7----2----5---0----3--2--0h2p0------|
E-------------X--------X----------7----2----5---0----0--0-------------|
[ Tab from: http://www.guitartabs.cc/tabs/b/blind_melon/pull_acoustic_tab.html ]
E---------------------------------------------------------------------|
B---------------------------------------------------------------------|
G#-------0---0--------------------------0---0---0--0------------------|
E--------2/--4----------------3~--------2/--4\--2--0------------------|
B-0-3-2--------0-3--2--0h2p0-----0-3-2--------------------------------|
E-0-0-0--------0-0--0------------0-0-0--------------------------------|

Bridge: (leading to outro after the verse)
E----7---2--5------------------------|
B----7---2--5------------------------|
G#---7---2--5------------------------|
E----7---2--5------------------------|
B----7---2--5---0--------------------|
E----7---2--5---0---pause-two-beats--|

Outro: {Repeat 8 times} ____
E----------------------------|---------------------------0--------------|
B---------------------------5|---------------------------0--------------|
G#---------------------------|---------------------------0--------------|
E----------------------------|---------------------------0--------------|
B-----0----2---0-------------|---0---2-0---2-0---2-0-----0--------------|
E-----0h3--0---0h3-----------|---0h3-0-0h3-0-0h3-0-0h3---0--------------|

Order:
Intro
Verse
Verse
Verse
Verse
Bridge
Outro

Guidline:
h= hammer on
p= pull off
/= slide up
\= slide down
~= vibrato

Well there you have it! this is an awesome song and is really fun to play, if there are 
questions/comments email me at illest_baller2001@hotmail.com or if you would like me to 
more blind melon songs that are actually right email me see ya later.
Comments