Blind Melon - No Rain Chords & Tabs

 

No Rain Chords & Tabs

Blind Melon Chords & Tabs

Version: 6 Type: Tab 0 ratings
1 star 2 stars 3 stars 4 stars 5 stars
comments

No Rain Tab

OK, This is all you play for the during most of the entire song

-0-5-4-5-2-0---0---0-5-4-5-
-------------3---3---------
---------------------------
---------------------------
---------------------------
---------------------------

Then as you go into the beggining of the chorus you go
[ Tab from: http://www.guitartabs.cc/tabs/b/blind_melon/no_rain_tab_ver_6.html ]
---0---0-----0---0---------
-3---3---3-3---3--3--------
--------------------4-3-4--
---------------------------
---------------------------
---------------------------

But on the 3rd Fret, 3rd Chord, you slide baby yea.

This might suck a little, but it gives the main idea of the song. Peace.
Comments