Blind Melon - No Rain Chords & Tabs

 

No Rain Chords & Tabs

Blind Melon Chords & Tabs

Version: 3 Type: Tab 0 ratings
1 star 2 stars 3 stars 4 stars 5 stars
comments

No Rain Tab

   
##################################################################################
# This file is the author's own work and represents their interpretation of the  #
# song. You may only use this file for private study, scholarship, or research.  #
##################################################################################


Tabbed: Joel Crawford madsnake91@hotmail.com
Band: Blind melon
Song: No Rain

[ Tab from: http://www.guitartabs.cc/tabs/b/blind_melon/no_rain_tab_ver_3.html ]
Intro
 
e--------------------------------------------------------------------
b--10-10h12-----10-12----10-10h12------9h10--------------------------
G-----------9---------9------------9-9-------11--9--7--7h9-----------
D--------------------------------------------------------------------
A--------------------------------------------------------------------
E--------------------------------------------------------------------


The chords are as followed...

    E     D     A     G
e---0-----2-----0-----3-------------
b---0-----3-----2-----3-------------
G---1-----2-----2-----0-------------
D---2-----0-----2-----0-------------
A---2-----0-----0-----2-------------
E---0-----0-----0-----3-------------



That simple trend setters. im to lazy to do the rest.
Im sure the smart enough to get the rest. if you're even smarter
you'll figure out the solo. 

"just cause we rock, doesn't mean we're made of stone...."

                                               -cheers-
Comments