Blind Melon - No Rain Chords & Tabs

 

No Rain Chords & Tabs

Blind Melon Chords & Tabs

Version: 1 Type: Bass Tab 0 ratings
1 star 2 stars 3 stars 4 stars 5 stars
comments

No Rain Bass Tab

BASS TAB
ARTIST:BLIND MELON
TITLE:NO RAIN
ALBUM:(?)
TABBED BY:"THE WARLORD"-ADROCK17@EMAIL.COM
tuning: standard
the original tabber, johari taylor was on the right track...the groove
was right on, but i think he was off on some notes. here's my version:

intro
E:-0~-(let ring)----+
[ Tab from: http://www.guitartabs.cc/tabs/b/blind_melon/no_rain_btab.html ]
part 1:
G:----9--------7----------+
D:------4-6--5----4-4h5---+
A:-7----------------------+

part 2
G:-----9------7------------------+  second time play this ending:
D:----9-9----7-7-----7-----------+ D:-2/4-2-0-----+
A:-7------5---------7------------+ A:---------2---+
E:----------------5------3^-3^-0-+ E:----------0~-+

quiet part:
A:-/5-------/7----------+
E:----0~-------0~-------+

outro:
D:---4h6------+
A:-7-----5~---+

Comments