Blind Melon - Mouthful Of Cavities Chords & Tabs

 

Mouthful Of Cavities Chords & Tabs

Blind Melon Chords & Tabs

Version: 2 Type: Tab 0 ratings
1 star 2 stars 3 stars 4 stars 5 stars
comments

Mouthful Of Cavities Tab

Mouthful of Cavities - Blind Melon ------0--0-0------0-0---------------------------0--0-0----------- 
------0--0-0------0-0-------3p0---0--0--0--0----0--0-0----------- 
------0--0-0------0-0------------4--3--2--0-----0--0-0----------- 
---2--2--2-2------2-2------------------------2--2--2-2----------- 
---------------3--3-3--3/5--------------------------------------- 
----------------------------------------------------------------- 

------0-0-------------------------------------------------------- 
------0-0---------5h7--7-7---5h7--7-7---7--5--------------------- 
------0-0---------5h7--7-7---5h7--7-7---7--5--------------------- 
------2-2---------5h7--7-7---5h7--7-7---7--5----------(repeat)--- 
---3--3-3--3/5--------------------------------------------------- 
----------------------------------------------------------------- 
[ Tab from: http://www.guitartabs.cc/tabs/b/blind_melon/mouthful_of_cavities_tab_ver_2.html ]
That's the basic riff for the whole song, except for one small 
chord change that I'm too lazy to fugure out,and at the end of = 

the song when they turn on the distortion they play  E C and D 
and the little 5h7 thing (at the end of the tab). 


Lyrics 

Mouthful of cavities 
your souls a bowl of jokes 
ane everyday you remind me 
how I'm desperately in need 

See, I got alot of fiends around 
and they're peaking through nothing new 
they see you 
they see everything you do 

Seeing everything on the inside, out 

Oh,please give me a little more 
and I'll push away those baby blues 
'Cause one of these days this will die 
so will me and so will you 

I write a letter to a friend of mine 
I tell him how much I used to love to 
watch him smile 

See I haven't seen him smile in  a 
little while 
Haven't seen him smile in a little while 

But, I know you're laughin' from the 
inside out 
Laughin' from the inside out 
I know you're laughin' from the 
inside out 

Laughin' from the inside 
from the inside (x3) 
from the inside out.
Comments