Blind Melon - Mouth Full Of Cavities Chords & Tabs

 

Mouth Full Of Cavities Chords & Tabs

Blind Melon Chords & Tabs

Version: 1 Type: Tab 0 ratings
1 star 2 stars 3 stars 4 stars 5 stars
comments

Mouth Full Of Cavities Tab

##################################################################################
# This file is the author's own work and represents their interpretation of the  #
# song. You may only use this file for private study, scholarship, or research.  #
##################################################################################

Artist : Blind Melon
Song : Mouth full of cavities

this is deffinatly one of my favorite blind melon songs. i was upset
at how the other tabs sounded, so i decided to put up my version.
I think this is about as close as it gets,....but..you see for 
yourself..


At the very first of the song, he just strums the E chord . Then goes
into this..
------0--0-0------0-0---------------------------0--0-0-----------
------0--0-0------0-0-------3p0---0--0--0--0----0--0-0-----------
------0--0-0------0-0------------4--3--2--0-----0--0-0-----------
---2--2--2-2---2--2-2--2-4-------------------2--2--2-2-----------
---2--2--2-2---3--3-3--3/5-------------------2--2--2-2-----------
---0--0--0-0-----------------------------------------------------
[ Tab from: http://www.guitartabs.cc/tabs/b/blind_melon/mouth_full_of_cavities_tab.html ]
------0-0--------------------------------------------------------
------0-0---------5h7--7-7---5h7--7-7---7--5---------------------
------0-0---------5h7--7-7---5h7--7-7---7--5---------------------
---2--2-2--2-4----5h7--7-7---5h7--7-7---7--5---------------------
---3--3-3--3/5---------------------------------------------------
-----------------------------------------------------------------

-----------------------------------------------------------------
-----------------------------------------------------------------
--2--------------------------------------------------------------
--2--------------------------------------------------------------
--0(repeat the A over and over with slight veriations)-----------
-----------------------------------------------------------------
they see everything you do....


Chorus

----------------0------------------------------------------------
---------1-1----2------------------------------------------------
---------0-0----3-----------------------------------------------
-2--2----2-2----------------------------------------------------
-2--2----3-3------------------------------------------------------
-0--0-------------------------------------------------------------
 Seeing everything on the inside out
use distortion on about the 6th level






Any changes , comments, or request, please send me flames or thanks to
smackdown1@att.net, i'd love to hear from ya! later guys!
Comments