Blind Melon - 2x4 Chords & Tabs

 

2x4 Chords & Tabs

Blind Melon Chords & Tabs

Version: 1 Type: Tab 0 ratings
1 star 2 stars 3 stars 4 stars 5 stars
comments

2x4 Tab

   
Alright, heres the tab for blind melons song 2x4 it is my version and is 100% correct
Tuning - Standard

intro riff: repeat 8 times
   c5     A5   G5
E--8------5----3----xx------------------------------------------------|
B--8------5----3----xx------------------------------------------------|
G--89-----56---34---xx------------------------------------------------|
D--810----57---35---xx------------------------------------------------|
A--810----57---35---xx------------------------------------------------|
E--8------5----3----xx------------------------------------------------|


verse: gtr 1 distant
E---------------------------------------------------------------------|
B---------------------------------------------------------------------|
G-4---2p0-------------------------------------------------------------|
D----------2----4h5p4p0--4-4--2---------2-------2---------------------|
A---------------------------------3h4------3h4------4h5p40-----2~~----|
E---------------------------------------------------------------------|

Now while guitar 1 plays that riff guitar 2 plays:

A5
Needle, fatal

G5                      A5         G5
Someone's pouring warm gravy all over me

       A5
And you see that synthetic therapy

G5                      A5
Don't you know it seems to be so unappealing

  G5            A5
But oh what a feeling

bridge: repeat first part 4 times
   G5    A5    F5      G5
E--3/----5---|-1---2---3------------------------------------|
B--3/----5---|-1---2---3----2p0-2--5/-7-5-2p0-2-5/-7-5------|
G--34/---56--|-12--23--34---2p0-2--5/-7-5-2p0-2-5/-7-5------|
D--35/---57--|-13--24--35---2p0-2--5/-7-5-2p0-2-5/-7-5------|
A--35/---57--|-13--24--35-----------------------------------|
E--3/----5---|-1---2---3------------------------------------|

E--2p0-2-5/-7-5-------5-------------------------------------|
B--2p0-2-5/-7-5-------58------------------------------------|
G--2p0-2-5/-7-5-------57------------------------------------|
D---------------------5-----5-7~~~~-------------------------|
A---------------------5-----3-5~~~~-------------------------|
E---------------------5-------------------------------------|

verse: gtr 1 distant
E---------------------------------------------------------------------|
B---------------------------------------------------------------------|
G-4---2p0-------------------------------------------------------------|
D----------2----4h5p4p0--4-4--2---------2-------2---------------------|
A---------------------------------3h4------3h4------4h5p40-----2~~----|
E---------------------------------------------------------------------|

while gtr oneplays that riff guitar 2 plays:

A
And inside, air dry

G
I might want to go another way
[ Tab from: http://www.guitartabs.cc/tabs/b/blind_melon/2x4_tab.html ]
                            c5     A5    G5     A5                   G
But you see now I'm too pale to get out

          A                G   c5 A5 G5 A5
Into the lovely light of day

G                  A
     Oh, I'll do anything that you say

G                   A
     Oh, I'l do anything that you say

bridge: repeat first part 4 times
   G5    A5    F5      G5
E--3/----5---|-1---2---3------------------------------------|
B--3/----5---|-1---2---3----2p0-2--5/-7-5-2p0-2-5/-7-5------|
G--34/---56--|-12--23--34---2p0-2--5/-7-5-2p0-2-5/-7-5------|
D--35/---57--|-13--24--35---2p0-2--5/-7-5-2p0-2-5/-7-5------|
A--35/---57--|-13--24--35-----------------------------------|
E--3/----5---|-1---2---3------------------------------------|

E--2p0-2-5/-7-5-------5-------------------------------------|
B--2p0-2-5/-7-5-------58------------------------------------|
G--2p0-2-5/-7-5-------57------------------------------------|
D---------------------5-----5-7~~~~-------------------------|
A---------------------5-----3-5~~~~-------------------------|
E---------------------5-------------------------------------|

  c5     A5   G5
E--8------5----3----xx------------------------------------------------|
B--8------5----3----xx------------------------------------------------|
G--89-----56---34---xx------------------------------------------------|
D--810----57---35---xx------------------------------------------------|
A--810----57---35---xx------------------------------------------------|
E--8------5----3----xx------------------------------------------------|

Outro solo: Played with reverb and slight delay


E--20b20--17----19b--19-17-----20b20--17-----19b-19--17------------|
B------------17---------------------------17-------------17--------|
G------------------------------------------------------------------|
D------------------------------------------------------------------|
A------------------------------------------------------------------|
E------------------------------------------------------------------|

E-----17------17------17-----17------17------15------15-------15--|
B--18-----18------18-----18-------18-----17-------17------17------|
G-----------------------------------------------------------------|
D-----------------------------------------------------------------|
A-----------------------------------------------------------------|
E-----------------------------------------------------------------|

Tab legend:
h= hammer on
p=pull of
~=vibrato
/=slide up
x= ghost note

well there it is, a very fun song to play just listen to the song for exact strumming 
etc..if there are any quetions or comments or if you would like me to post more blind 
tabs jsut give me a shout at illest_baller2001@hotmail.com thanks and enjoy!
Comments