Blind Guardian - Weird Dreams Chords & Tabs

 

Weird Dreams Chords & Tabs

Blind Guardian Chords & Tabs

Version: 1 Type: Bass Tab 0 ratings
1 star 2 stars 3 stars 4 stars 5 stars
comments

Weird Dreams Bass Tab

Tune Down

F#||------|------|------|------|------|------|------|------|------|------|
C#||------|------|------|------|------|------|------|------|------|------|
G#||------|------|------|------|------|------|------|------|------|------|
D#||------|------|------|------|------|------|------|------|------|------|


                                                     
------|------|-------------------|------------------|
------|------|-------------------|------------------|
------|------|--3----------------|------------------|
------|------|-------------------|------------------|


                                                                          
--------------------------------------|----------------------------------|
--------------------------------------|----------------------------------|
--------------------------------------|----------------------------------|
--4--4--4--4--4--4--4--4--4--4--4--4--|--4--4--4--4--4--4--4--4--4--4----|


                                                                                
---------------------|------------------|--------------------------------------|
---------------------|------------------|--------------------------------------|
--3------------3--3--|------------------|--------------------------------------|
---------------------|------------------|--4--4--4--4--4--4--4--4--4--4--4--4--|


                                                                              
--------------------------------------|--------------------------------------|
--------------------------------------|--------------------------------------|
--------------------------------------|--------------------------------------|
--4--4--4--4--4--4--4--4--4--4--4--4--|--4--4--4--4--4--4--4--4--4--4--4--4--|


                                                                          
--------------------------------------|----------------------------------|
--------------------------------------|----------------------------------|
--------------------------------------|--4-4-4-4-4-4-4-4-4-4-4-4-4-4-4-4-|
--4--4--4--4--4--4--4--4--4--4--4--4--|----------------------------------|


                                                              
----------------------------------|--------------------------|
----------------------------------|--------------------------|
--4-4-4-4-4-4-4-4-4-4-4-4-4-4-4-4-|--3------3----3--3--3--3--|
----------------------------------|--------------------------|


                                                      
--------------------------|--------------------------|
--------------------------|--------------------------|
--3------3----3--3--3--3--|--3------3----3--3--3--3--|
--------------------------|--------------------------|


                                                              
--------------------------|----------------------------------|
--------------------------|----------------------------------|
--3------3----3--3--3--3--|--5-5-5-5-5-5-5-5-5-5-5-5-5-5-5-5-|
--------------------------|----------------------------------|


                                                              
----------------------------------|--------------------------|
----------------------------------|--------------------------|
--5-5-5-5-5-5-5-5-5-5-5-5-5-5-5-5-|--4------4----4--4--4--4--|
----------------------------------|--------------------------|


                                                              
--------------------------|----------------------------------|
--------------------------|----------------------------------|
--4------4----4--4--4--4--|--5-5-5-5-5-5-5-5-5-5-5-5-5-5-5-5-|
--------------------------|----------------------------------|


                                                                           
----------------------------------|-------------------|-------------------|
----------------------------------|-------------------|-------------------|
--5-5-5-5-5-5-5-5-5-5-5-5-5-5-5-5-|--4----------------|--------------2----|
----------------------------------|-------------------|-------------------|


                                                                          
-------------------|------------------|----------------------------------|
-------------------|------------------|----------------------------------|
--4----------------|------------------|--4-4-4-4-4-4-4-4-4-4-4-4-4-4-4-4-|
-------------------|------------------|----------------------------------|

[ Tab from: http://www.guitartabs.cc/tabs/b/blind_guardian/weird_dreams_btab.html ]
                                                                   
-------------------------------|----------------------------------|
-------------------------------|----------------------------------|
--4-4-4-4-4-4-4-4-4-4-4-4-2----|--4-4-4-4-4-4-4-4-4-4-4-4-4-4-4-4-|
-------------------------------|----------------------------------|


                                                                          
----------------------------------|--------------------------------------|
----------------------------------|--------------------------------------|
--4-4-4-4-4-4-4-4-4-4-4-4-4-4-4-4-|--0--0--0--0--0--0--0--0--0--0--0--0--|
----------------------------------|--------------------------------------|


                                                                              
--------------------------------------|--------------------------------------|
--------------------------------------|--------------------------------------|
--0--0--0--0--0--0--0--0--0--0--0--0--|--4--4--4--4--4--4--4--4--4--4--4--4--|
--------------------------------------|--------------------------------------|


                                                       
-------------------|----------------------------------|
-------------------|----------------------------------|
--4----------------|--5-5-5-5-5-5-5-5-5-5-5-5-5-5-5-5-|
-------------------|----------------------------------|


                                                                
----------------------------|----------------------------------|
----------------------------|----------------------------------|
--0-0-0-0-0-0-0-0-0----0----|--2-2-2-2-2-2-2-2-2-2-2-2-2-2-2-2-|
----------------------------|----------------------------------|


                                                                       
-------------------------------|--------------------------------------|
-------------------------------|--------------------------------------|
-------------------------------|--7--7--7--7--7--7--7--7--7--7--7--7--|
--2-2-2-2-2-2-2-2-2-2-2-2-2----|--------------------------------------|


                                                                              
--------------------------------------|--------------------------------------|
--------------------------------------|--------------------------------------|
--3--3--3--3--3--3--3--3--3--3--3--3--|--5--5--5--5--5--5--5--5--5--5--5--5--|
--------------------------------------|--------------------------------------|


                                                                              
--------------------------------------|--------------------------------------|
--------------------------------------|--------------------------------------|
--2--2--2--2--2--2--2--2--2--2--2--2--|--3--3--3--3--3--3--3--3--3--3--3--3--|
--------------------------------------|--------------------------------------|


                                                                              
--------------------------------------|--------------------------------------|
--------------------------------------|--------------------------------------|
--0--0--0--0--0--0--0--0--0--0--0--0--|--2--2--2--2--2--2--2--2--2--2--2--2--|
--------------------------------------|--------------------------------------|


                                                                            
-------------------|-------------------------------|-----------------------|
-------------------|-------------------------------|-----------------------|
--2----------------|--7-7-7-7-7-7-7-7-7-7-7-7-7----|-----------------------|
-------------------|-------------------------------|--3--3----3----3--3----|


                                                                   
-----------------------|------------------|-----------------------|
-----------------------|------------------|-----------------------|
--3--3----3----3----3--|------------------|-----------------------|
-----------------------|------------------|--1--1----1----1----1--|


                                                                          
----------------------------------|--------------------------------------|
----------------------------------|--------------------------------------|
----------------------------------|--------------------------------------|
--1-1-1-1-1-1-1-1-1-1-1-1-1-1-1-1-|--0--0--0--0--0--0--0--0--0--0--0--0--|


                                                                              
--------------------------------------|--------------------------------------|
--------------------------------------|--------------------------------------|
--------------------------------------|--------------------------------------|
--0--0--0--0--0--0--0--0--0--0--0--0--|--0--0--0--0--0--0--0--0--0--0--0--0--|


                     
-------------------||
-------------------||
-------------------||
--0----------------||
Comments