Blind Guardian - Time What Is Time Chords & Tabs

 

Time What Is Time Chords & Tabs

Blind Guardian Chords & Tabs

Version: 1 Type: Bass Tab 0 ratings
1 star 2 stars 3 stars 4 stars 5 stars
comments

Time What Is Time Bass Tab

Tune Down

F#||------------------|------------------|------------------|------------------|
C#||------------------|------------------|------------------|------------------|
G#||------------------|------------------|------------------|------------------|
D#||------------------|------------------|------------------|------------------|



                                                                             
------------------------------------------|---------------------------------|
------------------------------------------|---------------------------------|
------------------------------------------|--------------------------1------|
--3-0-0-0-3-0-0-0-0-0-0-0-0-0-0-0-0-0-0-0-|--3-0-0-0-3-0-0-0-0-0-0-0--------|


                                                                             
------------------------------------------|---------------------------------|
------------------------------------------|---------------------------------|
------------------------------------------|--------------------------1------|
--3-0-0-0-3-0-0-0-0-0-0-0-0-0-0-0-0-0-0-0-|--3-0-0-0-3-0-0-0-0-0-0-0--------|


                                                                
--------------------|---------------------|--------------------|
--------------------|---------------------|--------------------|
-----------5--------|-----------3----0----|-----------5--------|
--0-----------------|--0------------------|--0-----------------|


                                                                
---------------------|--------------------|--------------------|
---------------------|--------------------|--------------------|
-----------3----5----|-----------3--------|--2--------3--------|
--0------------------|--0-----------------|--------------------|


                                          
--------------------|--------------------|
--------------------|--------------------|
-----------3--------|--2--------3--------|
--0-----------------|--------------------|


                                           
------------------------------------------|
------------------------------------------|
----------------2---3---------------3---2-|
--0-0-0-0-0-0-0---0---0-0-0-0-0-0-0---0---|


                                           
------------------------------------------|
------------------------------------------|
----------------2---3---------------3---2-|
--0-0-0-0-0-0-0---0---0-0-0-0-0-0-0---0---|


                                           
------------------------------------------|
------------------------------------------|
----------------2---3---------------3---2-|
--0-0-0-0-0-0-0---0---0-0-0-0-0-0-0---0---|


                                         
----------------------------------------|
----------------------------------------|
----------------2---3-------------------|
--0-0-0-0-0-0-0---0---0-0-0-0-0-0-5/-0--|


                                                      
-----------------------------------------------------|
-----------------------------------------------------|
--0-0-0-0-3-0-0-0-0-5-0-0-0-0-6-0-0-0-0-5-0-0-0-0-6--|
-----------------------------------------------------|


                                                      
-----------------------------------------------------|
-----------------------------------------------------|
--0-0-0-0-3-0-0-0-0-5-0-0-0-0-6-0-0-0-0-5-0-0-0-0-6--|
-----------------------------------------------------|


                                                      
-----------------------------------------------------|
-----------------------------------------------------|
--0-0-0-0-3-0-0-0-0-5-0-0-0-0-6-0-0-0-0-5-0-0-0-0-6--|
-----------------------------------------------------|


                                                      
-----------------------------------------------------|
-----------------------------------------------------|
--0-0-0-0-3-0-0-0-0-5-0-0-0-0-6-0-0-0-0-5-0-0-0-0-6--|
-----------------------------------------------------|


                                                                   
------------------------------------------------------------------|
------------------------------------------------------------------|
------------------------------------------------------------------|
--5-5-5-5-5-5-5-5-5-5-5-5-5-5-5-5-1-1-1-1-1-1-1-1-1-1-1-1-1-1-1-1-|


                                                                   
------------------------------------------------------------------|
------------------------------------------------------------------|
------------------------------------------------------------------|
--3-3-3-3-3-3-3-3-3-3-3-3-3-3-3-3-0-0-0-0-0-0-0-0-0-0-0-0-0-0-3-0-|


                                                                   
------------------------------------------------------------------|
------------------------------------------------------------------|
------------------------------------------------------------------|
--5-5-5-5-5-5-5-5-5-5-5-5-5-5-5-5-1-1-1-1-1-1-1-1-1-1-1-1-1-1-1-1-|


                                                                   
------------------------------------------------------------------|
------------------------------------------------------------------|
--3-3-3-3-3-3-3-3-3-3-3-3-3-3-3-3---------------------------------|
----------------------------------3-3-3-3-3-3-3-3-3-3-3-3-3-3-3-3-|


                                                                   
------------------------------------------------------------------|
------------------------------------------------------------------|
------------------------------------------------------------------|
--5-5-5-5-5-5-5-5-5-5-5-5-5-5-5-5-1-1-1-1-1-1-1-1-1-1-1-1-1-1-1-1-|


                                                                   
------------------------------------------------------------------|
------------------------------------------------------------------|
--3-3-3-3-3-3-3-3-3-3-3-3-3-3-3-3---------------------------------|
----------------------------------0-0-0-0-0-0-0-0-0-0-0-0-0-0-0-0-|


                                                                   
------------------------------------------------------------------|
------------------------------------------------------------------|
------------------------------------------------------------------|
--5-5-5-5-5-5-5-5-5-5-5-5-5-5-5-5-1-1-1-1-1-1-1-1-1-1-1-1-1-1-1-1-|


                                                                   
------------------------------------------------------------------|
------------------------------------------------------------------|
------------------------------------------------------------------|
--3-3-3-3-3-3-3-3-3-3-3-3-3-3-3-3-4-4-4-4-4-4-4-4-4-4-4-4-4-4-4-4-|


                                                                     
--------------------|--------------------|--------------------------|
--------------------|--------------------|--------------------------|
--0-----------------|--0-----------------|--0-0-0--0----------------|
-----------1--------|-----------1--------|--------------1-1--1--1---|


                                                      
--------------------------|--------------------------|
--------------------------|--------------------------|
--0-0-0--0----------------|--0-0-0--0----------------|
--------------1-1--1--1---|--------------1-1--1--1---|


                                                                  
--------------------------|--------------------------------------|
--------------------------|--------------------------------------|
--0-0-0--0----------------|--5-5-5-5-5-5-5-5-5-5-5-5-5-5-5-5-5-5-|
--------------1-1--1--1---|--------------------------------------|


                                                                              
--------------------------------------|--------------------------------------|
--------------------------------------|--------------------------------------|
--5-5-5-5-5-5-5-5-5-5-5-5-5-5-5-5-5-5-|--5-5-5-5-5-5-5-5-5-5-5-5-5-5-5-5-5-5-|
--------------------------------------|--------------------------------------|


                                                                              
--------------------------------------|--------------------------------------|
--------------------------------------|--------------------------------------|
--5-5-5-5-5-5-5-5-5-5-5-5-5-5-5-5-5-5-|--7-7-7-7-7-7-7-7-7-7-7-7-7-7-7-7-7-7-|
--------------------------------------|--------------------------------------|


                                                                              
--------------------------------------|--------------------------------------|
--------------------------------------|--------------------------------------|
--8-8-8-8-8-8-8-8-8-8-8-8-8-8-8-8-8-8-|--7-7-7-7-7-7-7-7-7-7-7-7-7-7-7-7-7-7-|
--------------------------------------|--------------------------------------|


                                                            
--------------------------------------|--------------------|
--------------------------------------|--------------------|
--8-8-8-8-8-8-8-8-8-8-8-8-8-8-8-8-8-8-|--0----2------------|
--------------------------------------|--------------------|


                                                                   
----------------------|--------------------|----------------------|
----------------------|--------------------|----------------------|
--2---0---3---5-------|--0----2------------|--2---0---3---5-------|
----------------------|--------------------|----------------------|


                                                                   
------------------------------------------------------------------|
------------------------------------------------------------------|
--0-0-0-0-0-0-0-0-0-0-0-0-0-0-0-0-0-0-0-0-0-0-0-0-0-0-0-0-0-0-0-0-|
------------------------------------------------------------------|


                                                                   
------------------------------------------------------------------|
------------------------------------------------------------------|
--0-0-0-0-0-0-0-0-0-0-0-0-0-0-0-0-0-0-0-0-0-0-0-0-0-0-0-0-0-0-0-0-|
------------------------------------------------------------------|


                                                                   
------------------------------------------------------------------|
------------------------------------------------------------------|
----------------------------------5-5-5-5-5-5-5-5-5-5-5-5-5-5-5-5-|
--3-3-3-3-3-3-3-3-3-3-3-3-3-3-3-3---------------------------------|


                                                                   
------------------------------------------------------------------|
------------------------------------------------------------------|
--5-5-5-5-5-5-5-5-5-5-5-5-5-5-5-5---------------------------------|
----------------------------------0-0-0-0-0-0-0-0-0-0-0-0-0-0-0-0-|


                                                                   
------------------------------------------------------------------|
------------------------------------------------------------------|
--0-0-0-0-0-0-0-0-0-0-0-0-0-0-0-0-0-0-0-0-0-0-0-0-0-0-0-0-0-0-0-0-|
------------------------------------------------------------------|


                                                                   
------------------------------------------------------------------|
------------------------------------------------------------------|
--0-0-0-0-0-0-0-0-0-0-0-0-0-0-0-0-0-0-0-0-0-0-0-0-0-0-0-0-0-0-0-0-|
------------------------------------------------------------------|


                                                                   
------------------------------------------------------------------|
------------------------------------------------------------------|
----------------------------------5-5-5-5-5-5-5-5-5-5-5-5-5-5-5-5-|
--3-3-3-3-3-3-3-3-3-3-3-3-3-3-3-3---------------------------------|


                                                                   
------------------------------------------------------------------|
------------------------------------------------------------------|
--5-5-5-5-5-5-5-5-5-5-5-5-5-5-5-5---------------------------------|
----------------------------------0-0-0-0-0-0-0-0-0-0-0-0-0-0-0-0-|


                                                                   
------------------------------------------------------------------|
------------------------------------------------------------------|
------------------------------------------------------------------|
--5-5-5-5-5-5-5-5-5-5-5-5-5-5-5-5-3-3-3-3-3-3-3-3-3-3-3-3-3-3-3-3-|


                                                                   
------------------------------------------------------------------|
------------------------------------------------------------------|
--5-5-5-5-5-5-5-5-5-5-5-5-5-5-5-5---------------------------------|
----------------------------------3-3-3-3-3-3-3-3-3-3-3-3-3-3-3-3-|


                                                                   
------------------------------------------------------------------|
------------------------------------------------------------------|
------------------------------------------------------------------|
--5-5-5-5-5-5-5-5-5-5-5-5-5-5-5-5-3-3-3-3-3-3-3-3-3-3-3-3-3-3-3-3-|

[ Tab from: http://www.guitartabs.cc/tabs/b/blind_guardian/time_what_is_time_btab.html ]
                                                                   
------------------------------------------------------------------|
------------------------------------------------------------------|
--5-5-5-5-5-5-5-5-5-5-5-5-5-5-5-5---------------------------------|
----------------------------------3-3-3-3-3-3-3-3-3-3-3-3-3-3-3-3-|


                                                                   
------------------------------------------------------------------|
------------------------------------------------------------------|
------------------------------------------------------------------|
--5-5-5-5-5-5-5-5-5-5-5-5-5-5-5-5-1-1-1-1-1-1-1-1-1-1-1-1-1-1-1-1-|


                                                                   
------------------------------------------------------------------|
------------------------------------------------------------------|
------------------------------------------------------------------|
--3-3-3-3-3-3-3-3-3-3-3-3-3-3-3-3-0-0-0-0-0-0-0-0-0-0-0-0-0-0-3-0-|


                                                                   
------------------------------------------------------------------|
------------------------------------------------------------------|
------------------------------------------------------------------|
--5-5-5-5-5-5-5-5-5-5-5-5-5-5-5-5-1-1-1-1-1-1-1-1-1-1-1-1-1-1-1-1-|


                                                                   
------------------------------------------------------------------|
------------------------------------------------------------------|
--3-3-3-3-3-3-3-3-3-3-3-3-3-3-3-3---------------------------------|
----------------------------------3-3-3-3-3-3-3-3-3-3-3-3-3-3-3-3-|


                                                                   
------------------------------------------------------------------|
------------------------------------------------------------------|
------------------------------------------------------------------|
--5-5-5-5-5-5-5-5-5-5-5-5-5-5-5-5-1-1-1-1-1-1-1-1-1-1-1-1-1-1-1-1-|


                                                                   
------------------------------------------------------------------|
------------------------------------------------------------------|
--3-3-3-3-3-3-3-3-3-3-3-3-3-3-3-3---------------------------------|
----------------------------------0-0-0-0-0-0-0-0-0-0-0-0-0-0-0-0-|


                                                                   
------------------------------------------------------------------|
------------------------------------------------------------------|
------------------------------------------------------------------|
--5-5-5-5-5-5-5-5-5-5-5-5-5-5-5-5-1-1-1-1-1-1-1-1-1-1-1-1-1-1-1-1-|


                                                                   
------------------------------------------------------------------|
------------------------------------------------------------------|
------------------------------------------------------------------|
--3-3-3-3-3-3-3-3-3-3-3-3-3-3-3-3-4-4-4-4-4-4-4-4-4-4-4-4-4-4-4-4-|


                                                                   
------------------------------------------------------------------|
------------------------------------------------------------------|
--3-3-3-3-3-3-3-3-3-3-3-3-3-3-3-3---------------------------------|
----------------------------------3-3-3-3-3-3-3-3-3-3-3-3-3-3-3-3-|


                                                                   
------------------------------------------------------------------|
------------------------------------------------------------------|
--1-1-1-1-1-1-1-1-1-1-1-1-1-1-1-1---------------------------------|
----------------------------------3-3-3-3-3-3-3-3-3-3-3-3-3-3-3-3-|


                                                                   
------------------------------------------------------------------|
------------------------------------------------------------------|
--3-3-3-3-3-3-3-3-3-3-3-3-3-3-3-3---------------------------------|
----------------------------------3-3-3-3-3-3-3-3-3-3-3-3-3-3-3-3-|


                                              
---------------------------------------------|
---------------------------------------------|
--1-1-1-1-1-1-1-1-1-1-1-1-1-1-1-1-1---0------|
------------------------------------------3--|


                                                                   
------------------------------------------------------------------|
------------------------------------------------------------------|
------------------------------------------------------------------|
--5-5-5-5-5-5-5-5-5-5-5-5-5-5-5-5-1-1-1-1-1-1-1-1-1-1-1-1-1-1-1-1-|


                                                                   
------------------------------------------------------------------|
------------------------------------------------------------------|
--5-5-5-5-5-5-5-5-5-5-5-5-5-5-5-5-7-7-7-7-7-7-7-7-7-7-7-7-7-7-7-7-|
------------------------------------------------------------------|


                                                                   
------------------------------------------------------------------|
------------------------------------------------------------------|
------------------------------------------------------------------|
--5-5-5-5-5-5-5-5-5-5-5-5-5-5-5-5-1-1-1-1-1-1-1-1-1-1-1-1-1-1-1-1-|


                                                                   
------------------------------------------------------------------|
------------------------------------------------------------------|
--5-5-5-5-5-5-5-5-5-5-5-5-5-5-5-5-7-7-7-7-7-7-7-7-7-7-7-7-7-7-7-7-|
------------------------------------------------------------------|


                                                                  
---------------------|---------------------|---------------------|
---------------------|---------------------|---------------------|
---------------------|--5--------3----5----|---------------------|
--0--------3----2----|---------------------|--0--------3----2----|


                                                                  
---------------------|---------------------|---------------------|
---------------------|---------------------|---------------------|
--5--------3----5----|---------------------|--5--------3----5----|
---------------------|--0--------3----2----|---------------------|


                                            
---------------------|---------------------|
---------------------|---------------------|
---------------------|--5--------3----5----|
--0--------3----2----|---------------------|


                                                               
--------------------------------------------------------------|
--------------------------------------------------------------|
--1-1-1-1-1-1-1-1-1-1-1-1-1-1-1-5-5-5-5-5-5-5-5-5-5-5-5-5-5-5-|
--------------------------------------------------------------|


                                                               
--------------------------------------------------------------|
--------------------------------------------------------------|
--------------------------------3-3-3-3-3-3-3-3-3-3-3-3-3-3-3-|
--3-3-3-3-3-3-3-3-3-3-3-3-3-3-3-------------------------------|


                            
---------------------------|
---------------------------|
--5-3-5-7-8-7-5-3----------|
------------------3--------|


                                                               
--------------------------------------------------------------|
--------------------------------------------------------------|
--0-0-0-0-0-0-0-0-0-0-0-0-0-0-0-0-0-0-0-0-0-0-0-0-0-0-0-0-0-0-|
--------------------------------------------------------------|


                                                               
--------------------------------------------------------------|
--------------------------------------------------------------|
--------------------------------------------------------------|
--1-1-1-1-1-1-1-1-1-1-1-1-1-1-1-3-3-3-3-3-3-3-3-3-3-3-3-3-3-3-|


                                                               
--------------------------------------------------------------|
--------------------------------------------------------------|
--0-0-0-0-0-0-0-0-0-0-0-0-0-0-0-0-0-0-0-0-0-0-0-0-0-0-0-0-0-0-|
--------------------------------------------------------------|


                                                               
--------------------------------------------------------------|
--------------------------------------------------------------|
--------------------------------------------------------------|
--1-1-1-1-1-1-1-1-1-1-1-1-1-1-1-3-3-3-3-3-3-3-3-3-3-3-3-3-3-3-|


                                                               
--------------------------------------------------------------|
--------------------------------------------------------------|
--------------------------------------------------------------|
--1-1-1-1-1-1-1-1-1-1-1-1-1-1-1-3-3-3-3-3-3-3-3-3-3-3-3-3-3-3-|


                                                               
--------------------------------------------------------------|
--------------------------------------------------------------|
--------------------------------------------------------------|
--0-0-0-0-0-0-0-0-0-0-0-0-0-0-0-1-1-1-1-1-1-1-1-1-1-1-1-1-1-1-|


                                                               
--------------------------------------------------------------|
--------------------------------------------------------------|
--------------------------------------------------------------|
--1-1-1-1-1-1-1-1-1-1-1-1-1-1-1-3-3-3-3-3-3-3-3-3-3-3-3-3-3-3-|


                                                                   
------------------------------------------------------------------|
------------------------------------------------------------------|
------------------------------------------------------------------|
--5-5-5-5-5-5-5-5-5-5-5-5-5-5-5-5-1-1-1-1-1-1-1-1-1-1-1-1-1-1-1-1-|


                                                                   
------------------------------------------------------------------|
------------------------------------------------------------------|
------------------------------------------------------------------|
--3-3-3-3-3-3-3-3-3-3-3-3-3-3-3-3-0-0-0-0-0-0-0-0-0-0-0-0-0-0-3-0-|


                                                                   
------------------------------------------------------------------|
------------------------------------------------------------------|
------------------------------------------------------------------|
--5-5-5-5-5-5-5-5-5-5-5-5-5-5-5-5-1-1-1-1-1-1-1-1-1-1-1-1-1-1-1-1-|


                                                                   
------------------------------------------------------------------|
------------------------------------------------------------------|
--3-3-3-3-3-3-3-3-3-3-3-3-3-3-3-3---------------------------------|
----------------------------------3-3-3-3-3-3-3-3-3-3-3-3-3-3-3-3-|


                                                                   
------------------------------------------------------------------|
------------------------------------------------------------------|
------------------------------------------------------------------|
--5-5-5-5-5-5-5-5-5-5-5-5-5-5-5-5-1-1-1-1-1-1-1-1-1-1-1-1-1-1-1-1-|


                                                                   
------------------------------------------------------------------|
------------------------------------------------------------------|
--3-3-3-3-3-3-3-3-3-3-3-3-3-3-3-3---------------------------------|
----------------------------------0-0-0-0-0-0-0-0-0-0-0-0-0-0-0-0-|


                                                                   
------------------------------------------------------------------|
------------------------------------------------------------------|
------------------------------------------------------------------|
--5-5-5-5-5-5-5-5-5-5-5-5-5-5-5-5-1-1-1-1-1-1-1-1-1-1-1-1-1-1-1-1-|


                                                                   
------------------------------------------------------------------|
------------------------------------------------------------------|
------------------------------------------------------------------|
--3-3-3-3-3-3-3-3-3-3-3-3-3-3-3-3-4-4-4-4-4-4-4-4-4-4-4-4-4-4-4-4-|


                                                                             
-------------------|------------------|------------------|------------------|
-------------------|------------------|------------------|------------------|
-------------------|------------------|------------------|------------------|
--5----------------|------------------|------------------|------------------|


                                                                            
------------------|------------------|------------------|------------------|
------------------|------------------|------------------|------------------|
------------------|------------------|------------------|------------------|
------------------|------------------|------------------|------------------|


                                                                            
------------------|------------------|------------------|------------------|
------------------|------------------|------------------|------------------|
------------------|------------------|------------------|------------------|
------------------|------------------|------------------|------------------|


                                                          
------------------|------------------|------------------||
------------------|------------------|------------------||
------------------|------------------|------------------||
------------------|------------------|------------------||
Comments