Blind Guardian - Thorn Chords & Tabs

 

Thorn Chords & Tabs

Blind Guardian Chords & Tabs

Version: 1 Type: Bass Tab 0 ratings
1 star 2 stars 3 stars 4 stars 5 stars
comments

Thorn Bass Tab

Quite the simple song to learn, although I've been playing bass for eight years. Good Luck! 

Tune Down

F#||-------------------------------|------------------|
C#||-------------------------------|------------------|
G#||-------------------------------|------------------|
D#||--0--0----0--0----0------------|------------------|


                                                       
----------------------------------|-------------------|
----------------------------------|-------------------|
-----------------------5--6--7----|--5----------------|
--0--0----0--0----0---------------|-------------------|


                                                                      
----------------------------------|----------------------------------|
----------------------------------|----------------------------------|
-----------------------5--6--7----|-----------------------5--6--7----|
--0--0----0--0----0---------------|--0--0----0--0----0---------------|


                                                                           
----------------------------------|-------------------|-------------------|
----------------------------------|-------------------|-------------------|
-----------------------5--6--7----|--5----------------|--3----------------|
--0--0----0--0----0---------------|-------------------|-------------------|


                                                                                
-------------------|-------------------|-------------------|-------------------|
-------------------|-------------------|-------------------|-------------------|
--5----------------|--3----------------|--5----------------|-------------------|
-------------------|-------------------|-------------------|--0----------------|


                                                                              
------------------|-------------------|------------------|-------------------|
------------------|-------------------|------------------|-------------------|
------------------|-------------------|------------------|-------------------|
------------------|--0----------------|------------------|--0----------------|


                                                                     
------------------|-------------------|-----------------------------|
------------------|-------------------|-----------------------------|
------------------|-------------------|--------------0----2----3----|
------------------|--0----------------|-----------------------------|


                                                            
----------------------------|------------------------------|
----------------------------|--------------------0----2----|
--3-------------------------|--3------------3--------------|
-----------------------3----|------------------------------|


                                                                              
----------------------------|-------------------|----------------------------|
----------------------------|-------------------|----------------------------|
--2-------------------------|--2----------------|--3-------------------------|
-----------------------2----|-------------------|-----------------------3----|


                                                            
------------------------------|----------------------------|
--------------------0----2----|----------------------------|
--3------------3--------------|--2-------------------------|
------------------------------|-----------------------2----|


                                                                  
--------------------------------|--------------------------------|
--------------------------------|--------------------------------|
--2----2----2----2----2----2----|--2----2----2----2----2----2----|
--------------------------------|--------------------------------|


                                                                   
--------------------------------|---------------------------------|
--2----2--2--2------------------|--2----2--2--2----5--6--7--------|
------------------5--7----------|---------------------------------|
--------------------------------|---------------------------------|


                                                                  
--------------------------------|--------------------------------|
--------------------------------|--------------------------------|
--2----2----2----2---------2----|--2----2----2----2----2----2----|
----------------------2---------|--------------------------------|


                                                                   
--------------------------------|---------------------------------|
--2----2--2--2------------------|--2----2--2--2----5--6--7--------|
------------------5--7----------|---------------------------------|
--------------------------------|---------------------------------|


                                                                  
--------------------------------|--------------------------------|
--------------------------------|--------------------------------|
--2----2----2----2---------2----|--2----2----2----2----2----2----|
----------------------2---------|--------------------------------|


                                                                  
--------------------------------|--------------------------------|
--------------------------------|--------------------------------|
--------------------------------|--2------2--2----2----2----2----|
--0------0--0----0----0----0----|--------------------------------|


                                                                  
--------------------------------|--------------------------------|
--------------------------------|--------------------------------|
--0------0--0----0----0----0----|--0------0--0----0----0----0----|
--------------------------------|--------------------------------|


                                                                  
--------------------------------|--------------------------------|
--------------------------------|--------------------------------|
--3------3--3----3----3----3----|--5------5--5----5----5----5----|
--------------------------------|--------------------------------|


                                                                  
--------------------------------|--------------------------------|
--------------------------------|--------------------------------|
--0------0--0----0----0----0----|--0------0--0----0----0----0----|
--------------------------------|--------------------------------|


                                                                  
--------------------------------|--------------------------------|
--------------------------------|--------------------------------|
--------------------------------|--2------2--2----2----2----2----|
--0------0--0----0----0----0----|--------------------------------|


                                                                  
--------------------------------|--------------------------------|
--------------------------------|--------------------------------|
--0------0--0----0----0----0----|--0------0--0----0----0----0----|
--------------------------------|--------------------------------|


                                                                  
--------------------------------|--------------------------------|
--------------------------------|--------------------------------|
--3------3--3----3----3----3----|--5------5--5----5----5----5----|
--------------------------------|--------------------------------|


                                                                  
--------------------------------|--------------------------------|
--------------------------------|--------------------------------|
--0------0--0----0----0----0----|--0------0--0----0----0----0----|
--------------------------------|--------------------------------|


                                                                   
---------------------------------|--------------------------------|
---------------------------------|-------5------------------------|
--7----7----7----7----7----5/-7--|--7---------5----3----3----3----|
---------------------------------|--------------------------------|


                                                                   
---------------------------------|--------------------------------|
---------------------------------|-------5------------------------|
--7----7----7----7----7----5/-7--|--7---------5----3----3----3----|
---------------------------------|--------------------------------|


                                                                   
---------------------------------|--------------------------------|
---------------------------------|-------5------------------------|
--7----7----7----7----7----5/-7--|--7---------5----3----3----3----|
---------------------------------|--------------------------------|


                                                                   
---------------------------------|--------------------------------|
---------------------------------|-------5------------------------|
--7----7----7----7----7----5/-7--|--7---------5----3----3----3----|
---------------------------------|--------------------------------|


                                                                    
---------------------------------|---------------------------------|
---------------------------------|---------------------------------|
--7----7--7--7----7----5----5----|--5----7--7--7----7----2----2----|
---------------------------------|---------------------------------|


                                                                     
---------------------------------|----------------------------------|
---------------------------------|--5----4h5h4-------4--------------|
--7----7--7--7----7----5----5----|--------------5---------5----4----|
---------------------------------|----------------------------------|


                                                                  
-------------------------------|---------------------------------|
-------------------------------|---------------------------------|
--3----------------0h-3h-0h-3--|--7----7--7--7----7----5----5----|
-------------------------------|---------------------------------|


                                                                    
---------------------------------|---------------------------------|
---------------------------------|---------------------------------|
--5----7--7--7----7----2----2----|--7----7--7--7----7----5----5----|
---------------------------------|---------------------------------|


                                                       
----------------------------------|-------------------|
--5----4h5h4-------4--------------|-------------------|
--------------5---------5----4----|--3----------------|
----------------------------------|-------------------|


                                                                      
----------------------------------|----------------------------------|
----------------------------------|----------------------------------|
-----------------------5--6--7----|-----------------------5--6--7----|
--0--0----0--0----0---------------|--0--0----0--0----0---------------|


                                                       
----------------------------------|-------------------|
----------------------------------|-------------------|
-----------------------5--6--7----|--5----------------|
--0--0----0--0----0---------------|-------------------|


                                                                      
----------------------------------|----------------------------------|
----------------------------------|----------------------------------|
-----------------------5--6--7----|-----------------------5--6--7----|
--0--0----0--0----0---------------|--0--0----0--0----0---------------|


                                                       
----------------------------------|-------------------|
----------------------------------|-------------------|
-----------------------5--6--7----|--5----------------|
--0--0----0--0----0---------------|-------------------|


                                                            
----------------------------|------------------------------|
----------------------------|--------------------0----2----|
--3-------------------------|--3------------3--------------|
-----------------------3----|------------------------------|


                                                                              
----------------------------|-------------------|----------------------------|
----------------------------|-------------------|----------------------------|
--2-------------------------|--2----------------|--3-------------------------|
-----------------------2----|-------------------|-----------------------3----|


                                                            
------------------------------|----------------------------|
--------------------0----2----|----------------------------|
--3------------3--------------|--2-------------------------|
------------------------------|-----------------------2----|


                                                                  
--------------------------------|--------------------------------|
--------------------------------|--------------------------------|
--2----2----2----2----2----2----|--------------------------------|
--------------------------------|--0------0--0----0----0----0----|


                                                                  
--------------------------------|--------------------------------|
--------------------------------|--------------------------------|
--2------2--2----2----2----2----|--0------0--0----0----0----0----|
--------------------------------|--------------------------------|


                                                                  
--------------------------------|--------------------------------|
--------------------------------|--------------------------------|
--0------0--0----0----0----0----|--3------3--3----3----3----3----|
--------------------------------|--------------------------------|


                                                                  
--------------------------------|--------------------------------|
--------------------------------|--------------------------------|
--5------5--5----5----5----5----|--0------0--0----0----0----0----|
--------------------------------|--------------------------------|


                                                                  
--------------------------------|--------------------------------|
--------------------------------|--------------------------------|
--0------0--0----0----0----0----|--------------------------------|
--------------------------------|--0------0--0----0----0----0----|

[ Tab from: http://www.guitartabs.cc/tabs/b/blind_guardian/thorn_btab.html ]
                                                                  
--------------------------------|--------------------------------|
--------------------------------|--------------------------------|
--2------2--2----2----2----2----|--0------0--0----0----0----0----|
--------------------------------|--------------------------------|


                                                                  
--------------------------------|--------------------------------|
--------------------------------|--------------------------------|
--0------0--0----0----0----0----|--3------3--3----3----3----3----|
--------------------------------|--------------------------------|


                                                                  
--------------------------------|--------------------------------|
--------------------------------|--------------------------------|
--5------5--5----5----5----5----|--0------0--0----0----0----0----|
--------------------------------|--------------------------------|


                                                                      
--------------------------------|------------------------------------|
--------------------------------|------------------------------------|
--0------0--0----0----0----0----|------------------------------------|
--------------------------------|--0--0--0----0--0--0--0--0----0--0--|


                                                                         
-----------------------------------|------------------------------------|
-----------------------------------|------------------------------------|
--2--2--2--2--2--2--1----1----1----|------------------------------------|
-----------------------------------|--0--0--0----0--0--0--0--0----0--0--|


                                                                         
-----------------------------------|------------------------------------|
-----------------------------------|------------------------------------|
--2--2--2--2--2--2--1----1----1----|------------------------------------|
-----------------------------------|--0--0--0----0--0--0--0--0----0--0--|


                                                                         
-----------------------------------|------------------------------------|
-----------------------------------|------------------------------------|
--2--2--2--2--2--2--1----1----1----|------------------------------------|
-----------------------------------|--0--0--0----0--0--0--0--0----0--0--|


                                                                           
-----------------------------------|--------------------------------------|
-----------------------------------|--------------------------------------|
--2--2--2--2--2--2--1----1----1----|--0--0--0--0--0--0--0--0--0--0--0--0--|
-----------------------------------|--------------------------------------|


                                                                              
--------------------------------------|--------------------------------------|
--1--1--1--1--1--1--0--0--0--0--0--0--|--------------------------------------|
--------------------------------------|--0--0--0--0--0--0--0--0--0--0--0--0--|
--------------------------------------|--------------------------------------|


                                                                          
--------------------------------------|----------------------------------|
--1--1--1--1--1--1--0--0--0--0--0--0--|----------------------------------|
--------------------------------------|----------------------------------|
--------------------------------------|--0----0--0--0----0----0--0--0----|


                                                                      
----------------------------------|----------------------------------|
----------------------------------|----------------------------------|
----------------------------------|----------------------------------|
--0----0--0--0----0----0--0--0----|--0----0--0--0----0----0--0--0----|


                                                                          
----------------------------------|--------------------------------------|
----------------------------------|--------------------------------------|
----------------------------------|--0--0--0--0--0--0--0--0--0--0--0--0--|
--0----0--0--0----0----0--0--0----|--------------------------------------|


                                                                              
--------------------------------------|--------------------------------------|
--1--1--1--1--1--1--0--0--0--0--0--0--|--------------------------------------|
--------------------------------------|--0--0--0--0--0--0--0--0--0--0--0--0--|
--------------------------------------|--------------------------------------|


                                                                          
--------------------------------------|----------------------------------|
--1--1--1--1--1--1--0--0--0--0--0--0--|----------------------------------|
--------------------------------------|----------------------------------|
--------------------------------------|--0----0--0--0----2----2--2--2----|


                                                                        
------------------------------------|----------------------------------|
------------------------------------|----------------------------------|
--0----0--0--0----2--2--2--2--2--2--|----------------------------------|
------------------------------------|--0----0--0--0----2----2--2--2----|


                                                                      
------------------------------------|--------------------------------|
------------------------------------|--2----2--2--2------------------|
--0----0--0--0----2--2--2--2--2--2--|------------------5--7----------|
------------------------------------|--------------------------------|


                                                                   
---------------------------------|--------------------------------|
--2----2--2--2----5--6--7--------|--------------------------------|
---------------------------------|--2----2----2----2---------2----|
---------------------------------|----------------------2---------|


                                                                  
--------------------------------|--------------------------------|
--------------------------------|--2----2--2--2------------------|
--2----2----2----2----2----2----|------------------5--7----------|
--------------------------------|--------------------------------|


                                                                   
---------------------------------|--------------------------------|
--2----2--2--2----5--6--7--------|--------------------------------|
---------------------------------|--2----2----2----2---------2----|
---------------------------------|----------------------2---------|


                                                          
--------------------------------|------------------------|
--------------------------------|------------------------|
--2----2----2----2----2----2----|------------------------|
--------------------------------|--0----0--0--0----0--0--|


                                                                          
------------------------|------------------------|-----------------------|
------------------------|------------------------|-----------------------|
--5----5--5--5----5--5--|------------------------|-------------2----2----|
------------------------|--0----0--0--0----0--0--|--0----0--0------------|


                                                                           
------------------------|------------------------|------------------------|
------------------------|------------------------|------------------------|
------------------------|--5----5--5--5----5--5--|------------------------|
--0----0--0--0----0--0--|------------------------|--0----0--0--0----0--0--|


                                                                          
-----------------------|------------------------|------------------------|
-----------------------|------------------------|------------------------|
-------------2----2----|------------------------|--5----5--5--5----5--5--|
--0----0--0------------|--0----0--0--0----0--0--|------------------------|


                                                                          
------------------------|-----------------------|------------------------|
------------------------|-----------------------|------------------------|
------------------------|-------------2----2----|------------------------|
--0----0--0--0----0--0--|--0----0--0------------|--0----0--0--0----0--0--|


                                                                          
------------------------|------------------------|-----------------------|
------------------------|------------------------|-----------------------|
--5----5--5--5----5--5--|------------------------|-------------2----2----|
------------------------|--0----0--0--0----0--0--|--0----0--0------------|


                                                                              
--------------------------------------|--------------------------------------|
--------------------------------------|--------------------------------------|
--3--3--3--3--3--3--3--3--3--3--3--3--|--0--0--0--0--0--0--5--5--5--5--5--5--|
--------------------------------------|--------------------------------------|


                                                                              
--------------------------------------|--------------------------------------|
--------------------------------------|--------------------------------------|
--3--3--3--3--3--3--3--3--3--3--3--3--|--0--0--0--0--0--0--5--5--5--5--5--5--|
--------------------------------------|--------------------------------------|


                                                                              
--------------------------------------|--------------------------------------|
--------------------------------------|--------------------------------------|
--3--3--3--3--3--3--3--3--3--3--3--3--|--0--0--0--0--0--0--5--5--5--5--5--5--|
--------------------------------------|--------------------------------------|


                                                                              
--------------------------------------|--------------------------------------|
--------------------------------------|--------------------------------------|
--3--3--3--3--3--3--3--3--3--3--3--3--|--0--0--0--0--0--0--5--5--5--5--5--5--|
--------------------------------------|--------------------------------------|


                                                                  
--------------------------------|--------------------------------|
--------------------------------|--------------------------------|
--------------------------------|--2------2--2----2----2----2----|
--0------0--0----0----0----0----|--------------------------------|


                                                                  
--------------------------------|--------------------------------|
--------------------------------|--------------------------------|
--0------0--0----0----0----0----|--0------0--0----0----0----0----|
--------------------------------|--------------------------------|


                                                                  
--------------------------------|--------------------------------|
--------------------------------|--------------------------------|
--3------3--3----3----3----3----|--5------5--5----5----5----5----|
--------------------------------|--------------------------------|


                                                                  
--------------------------------|--------------------------------|
--------------------------------|--------------------------------|
--0------0--0----0----0----0----|--0------0--0----0----0----0----|
--------------------------------|--------------------------------|


                                                                      
----------------------------------|----------------------------------|
----------------------------------|----------------------------------|
----------------------------------|--2----2--2--2----2----2--2--2----|
--0----0--0--0----0----0--0--0----|----------------------------------|


                                                                      
----------------------------------|----------------------------------|
----------------------------------|----------------------------------|
--0----0--0--0----0----0--0--0----|--0----0--0--0----0----0--0--0----|
----------------------------------|----------------------------------|


                                                                      
----------------------------------|----------------------------------|
----------------------------------|----------------------------------|
--3----3--3--3----3----3--3--3----|--5----5--5--5----5----5--5--5----|
----------------------------------|----------------------------------|


                                                       
----------------------------------|-------------------|
----------------------------------|-------------------|
--0----0--0--0----0----0--0--0----|--0----------------|
----------------------------------|-------------------|


                                                                     
----------------------------------|---------------------------------|
----------------------------------|---------------------------------|
--7----7--7--7----5----5--5--5----|--3----3--3--3----3----2----6----|
----------------------------------|---------------------------------|


                                                                     
----------------------------------|---------------------------------|
----------------------------------|---------------------------------|
--7----7--7--7----5----5--5--5----|--3----3--3--3----3----2----6----|
----------------------------------|---------------------------------|


                                                                     
----------------------------------|---------------------------------|
----------------------------------|---------------------------------|
--7----7--7--7----5----5--5--5----|--3----3--3--3----3----2----6----|
----------------------------------|---------------------------------|


                                                                     
----------------------------------|---------------------------------|
----------------------------------|---------------------------------|
--7----7--7--7----5----5--5--5----|--3----3--3--3----3----2----6----|
----------------------------------|---------------------------------|


                                                                                
-------------------|-------------------|-------------------|-------------------|
-------------------|-------------------|-------------------|-------------------|
--3----------------|--5----------------|--3----------------|--5----------------|
-------------------|-------------------|-------------------|-------------------|


                                                                              
-------------------|------------------|------------------|------------------||
-------------------|------------------|------------------|------------------||
-------------------|------------------|------------------|------------------||
-------------------|------------------|------------------|------------------||
Comments