Blind Guardian - The Curse Of Feanor Chords & Tabs

 

The Curse Of Feanor Chords & Tabs

Blind Guardian Chords & Tabs

Version: 1 Type: Bass Tab 0 ratings
1 star 2 stars 3 stars 4 stars 5 stars
comments

The Curse Of Feanor Bass Tab

Tune Down

F#||--------------------------|--------------------------|--------------------|
C#||--------------------------|--------------------------|--------------------|
G#||--0--0--0--0--0--0--0--0--|--1--1--1--1--------------|--0--------------0--|
D#||--------------------------|--------------3--3--3--3--|--------------------|


                                                                   
--------------------|----------------------|----------------------|
--------------------|----------------------|----------------------|
--0--------------0--|--0----0----0----0----|--0----0----0----0----|
--------------------|----------------------|----------------------|


                                                                           
----------------------|----------------------|----------------------------|
----------------------|----------------------|----------------------------|
--0----0----0----0----|--0----0----0----0----|--0-0--0-0--0-0--0-0--1-----|
----------------------|----------------------|-------------------------3--|


                                                          
----------------------------|----------------------------|
----------------------------|----------------------------|
--0-0--0-0--0-0--0-0--1-----|--0-0--0-0--0-0--0-0--1-----|
-------------------------3--|-------------------------3--|


                                                        
----------------------------|--------------------------|
----------------------------|--------------------------|
--0-0--0-0--0-0--0-0--1-----|--5--5--5--5--5--5--1--0--|
-------------------------3--|--------------------------|


                                                                             
--------------------------|--------------------------|----------------------|
--------------------------|--------------------------|-----------------3----|
--5--5--5--5--5--5--1--3--|--5--5--5--5--5--5--1--0--|--5---3---1-----------|
--------------------------|--------------------------|----------------------|


                                                      
--------------------------|--------------------------|
--------------------------|--------------------------|
--5--5--5--5--5--5--1--0--|--5--5--5--5--5--5--1--3--|
--------------------------|--------------------------|


                                                                             
--------------------------|----------------------|--------------------------|
--------------------------|----------------------|--------------------------|
--5--5--5--5--5--5--1--0--|----------1------0----|--5--5--5--5--5--5--1--0--|
--------------------------|--3---1---------------|--------------------------|


                                                                             
--------------------------|--------------------------|----------------------|
--------------------------|--------------------------|-----------------3----|
--5--5--5--5--5--5--1--3--|--5--5--5--5--5--5--1--0--|--5---3---1-----------|
--------------------------|--------------------------|----------------------|


                                                      
--------------------------|--------------------------|
--------------------------|--------------------------|
--5--5--5--5--5--5--1--0--|--5--5--5--5--5--5--1--3--|
--------------------------|--------------------------|


                                                                          
--------------------------|----------------------|-----------------------|
--------------------------|----------------------|-----------------------|
--5--5--5--5--5--5--1--0--|----------1------0----|--0----0----0----------|
--------------------------|--3---1---------------|-----------------1--1--|


                                                                    
---------------------|-----------------------|---------------------|
---------------------|-----------------------|---------------------|
-----------3---------|--3----3----3----------|-----------5---------|
------1---------1----|-----------------1--3--|------3---------3----|


                                                                      
-----------------------|---------------------|-----------------------|
-----------------------|---------------------|-----------------------|
--0----0----0----------|-----------3---------|-----------------------|
-----------------1--1--|------1---------1----|--0----0----0----1--0--|


                                                                    
---------------------|-----------------------|---------------------|
---------------------|-----------------------|---------------------|
---------------------|--0----0----0----------|-----------3---------|
------0----0----0----|-----------------1--1--|------1---------1----|


                                                                      
-----------------------|---------------------|-----------------------|
-----------------------|---------------------|-----------------------|
--3----3----3----------|-----------5---------|--0----0----0----------|
-----------------1--3--|------3---------3----|-----------------1--1--|


                                                                        
---------------------|----------------------|--------------------------|
---------------------|----------------------|--------------------------|
-----------3---------|----------------------|--------------------------|
------1---------1----|--0----0----0----0----|--0--0--0--0--0--0--0--0--|


                                                                       
-----------------------|----------------------|-----------------------|
-----------------------|----------------------|-----------------------|
--5----5----5----7--8--|------8----8----8-----|-----------------------|
-----------------------|-------------------8--|--5----5----5----3--3--|


                                                                     
---------------------|-----------------------|----------------------|
---------------------|-----------------------|----------------------|
-----------5---------|--5----5----5----7--8--|------8----8----0--2--|
------3-----------3--|-----------------------|----------------------|


                                                                      
-----------------------|----------------------|----------------------|
-----------------------|----------------------|----------------------|
--3------2--3----0--2--|----------------------|----------------------|
-----------------------|--3----3----3----3----|--1----1----1----1----|


                                                                      
-----------------------|-----------------------|---------------------|
-----------------------|-----------------------|---------------------|
------------3----------|------------7----------|-----------5---------|
--1----1---------1--3--|--5----5---------1--3--|------3-----------3--|


                                                                     
----------------------|----------------------|----------------------|
----------------------|----------------------|----------------------|
--5----5----5----7----|--8----8----8----8----|----------------------|
----------------------|----------------------|--8----8----8----8----|


                                                                           
----------------------|--------------------------|------------------------|
----------------------|--------------------------|------------------------|
----------------------|--0--2--2--2--0--2--2--2--|--2--2--7--6--5----0----|
--3----3----3----3----|--------------------------|------------------------|


                                                                               
--------------------------|------------------------|--------------------------|
--------------------------|------------------------|--------------------------|
--0--2--2--2--0--2--2--2--|--2--2--7--6--5----5----|--0--2--2--2--0--2--2--2--|
--------------------------|------------------------|--------------------------|


                                                                             
------------------------|--------------------------|------------------------|
------------------------|--------------------------|------------------------|
--2--2--7--6--5----0----|--0--2--2--2--0--2--2--2--|--2--2--7--6--5----5----|
------------------------|--------------------------|------------------------|


                                                      
--------------------------|--------------------------|
--------------------------|-----------------2--2-----|
--4--4--4--4--4--4--4--4--|--1--1--1--2--2--------2--|
--------------------------|--------------------------|


                                                      
--------------------------|--------------------------|
--------------------------|-----------------2--2-----|
--4--4--4--4--4--4--4--4--|--1--1--1--2--2--------2--|
--------------------------|--------------------------|


                                                      
--------------------------|--------------------------|
--------------------------|-----------------2--2-----|
--4--4--4--4--4--4--4--4--|--1--1--1--2--2--------4--|
--------------------------|--------------------------|


                                                      
--------------------------|--------------------------|
--------------------------|-----------------2--2-----|
--4--4--4--4--4--4--4--4--|--1--1--1--2--2--------2--|
--------------------------|--------------------------|


                                                      
--------------------------|--------------------------|
--------------------------|--------------------------|
--5--5--5--5--5--5--1--0--|--5--5--5--5--5--5--1--3--|
--------------------------|--------------------------|


                                                                             
--------------------------|----------------------|--------------------------|
--------------------------|-----------------3----|--------------------------|
--5--5--5--5--5--5--1--0--|--5---3---1-----------|--5--5--5--5--5--5--1--0--|
--------------------------|----------------------|--------------------------|


                                                                             
--------------------------|--------------------------|----------------------|
--------------------------|--------------------------|----------------------|
--5--5--5--5--5--5--1--3--|--5--5--5--5--5--5--1--0--|----------1------0----|
--------------------------|--------------------------|--3---1---------------|


                                                                       
-----------------------|----------------------|-----------------------|
-----------------------|----------------------|-----------------------|
--5----5----5----7--8--|------8----8----8-----|-----------------------|
-----------------------|-------------------8--|--5----5----5----3--3--|


                                                                    
---------------------|----------------------|----------------------|
---------------------|----------------------|----------------------|
-----------5---------|--5----5----5----7----|--8----8----8----8----|
------3-----------3--|----------------------|----------------------|


                                                                      
----------------------|----------------------|-----------------------|
----------------------|----------------------|-----------------------|
----------------------|----------------------|-----------------------|
--8----8----8----8----|--3----3----3----3----|--1----1----1----1--1--|


                                                                     
----------------------|-----------------------|---------------------|
----------------------|-----------------------|---------------------|
-----------3----------|------------7----------|-----------5---------|
------1---------1--3--|--5----5---------1--3--|------3-----------3--|


                                                                     
-----------------------|---------------------|----------------------|
-----------------------|---------------------|----------------------|
--5----5----5----7--8--|------8----8----8----|----------------------|
-----------------------|---------------------|--8----8----8----8----|


                                                                    
----------------------|---------------------|----------------------|
----------------------|---------------------|----------------------|
----------------------|--0--1--0------------|--0--1--0------3------|
--3----3----3----3----|---------------------|----------------------|


                                                                 
---------------------|----------------------|-------------------|
---------------------|----------------------|-------------------|
--0--1--0------------|--0--1--0------3------|-------------------|
---------------------|----------------------|--3----------------|


                                                                              
-------------------|----------------------------|----------------------------|
-------------------|----------------------------|----------------------------|
-------------------|--5-5--5-5--5-5--5-5--6--3--|--5-5--5-5--5-5--5-5--6--3--|
--------------5/---|----------------------------|----------------------------|


                                                          
----------------------------|----------------------------|
----------------------------|----------------------------|
--5-5--5-5--5-5--5-5--6--3--|--5-5--5-5--5-5--5-5--6--3--|
----------------------------|----------------------------|

[ Tab from: http://www.guitartabs.cc/tabs/b/blind_guardian/the_curse_of_feanor_btab.html ]
                                                          
----------------------------|----------------------------|
----------------------------|----------------------------|
--5-5--5-5--5-5--5-5--6--3--|--5-5--5-5--5-5--5-5--6--3--|
----------------------------|----------------------------|


                                                          
----------------------------|----------------------------|
----------------------------|----------------------------|
--5-5--5-5--5-5--5-5--6--3--|--5-5--5-5--5-5--5-5--6--3--|
----------------------------|----------------------------|


                                                          
----------------------------|----------------------------|
----------------------------|----------------------------|
--7-7--7-7--7-7--7-7--8--5--|--7-7--7-7--7-7--7-7--8--5--|
----------------------------|----------------------------|


                                                          
----------------------------|----------------------------|
----------------------------|----------------------------|
--7-7--7-7--7-7--7-7--8--5--|--7-7--7-7--7-7--7-7--8--5--|
----------------------------|----------------------------|


                                                          
----------------------------|----------------------------|
----------------------------|----------------------------|
--7-7--7-7--7-7--7-7--8--5--|--7-7--7-7--7-7--7-7--8--5--|
----------------------------|----------------------------|


                                                          
----------------------------|----------------------------|
----------------------------|----------------------------|
--7-7--7-7--7-7--7-7--8--5--|--7-7--7-7--7-7--7-7--8--5--|
----------------------------|----------------------------|


                                                                          
--------------------------|--------------------------|-------------------|
--------------------------|--------------2--2--------|-------------------|
--2--2--2--2--2--2--2--2--|--2--3--3--3--------0--0--|--2----------------|
--------------------------|--------------------------|-------------------|


                                                                         
------------------|--------------------------|--------------------------|
------------------|--------------------------|--2--2--2--2--5--5--------|
------------------|--2--2--2--2--2--2--2--2--|--------------------3--3--|
------------------|--------------------------|--------------------------|


                                                                  
-------------------|------------------|--------------------------|
-------------------|------------------|--------------------------|
--2----------------|------------------|--5--5--5--5--5--5--1--0--|
-------------------|------------------|--------------------------|


                                                                             
--------------------------|--------------------------|----------------------|
--------------------------|--------------------------|-----------------3----|
--5--5--5--5--5--5--1--3--|--5--5--5--5--5--5--1--0--|--5---3---1-----------|
--------------------------|--------------------------|----------------------|


                                                      
--------------------------|--------------------------|
--------------------------|--------------------------|
--5--5--5--5--5--5--1--0--|--5--5--5--5--5--5--1--3--|
--------------------------|--------------------------|


                                                                          
--------------------------|----------------------|-----------------------|
--------------------------|----------------------|-----------------------|
--5--5--5--5--5--5--1--0--|----------1------0----|--5----5----5----7--8--|
--------------------------|--3---1---------------|-----------------------|


                                                                     
----------------------|-----------------------|---------------------|
----------------------|-----------------------|---------------------|
------8----8----8-----|-----------------------|-----------5---------|
-------------------8--|--5----5----5----3--3--|------3-----------3--|


                                                                     
----------------------|----------------------|----------------------|
----------------------|----------------------|----------------------|
--5----5----5----7----|--8----8----8----8----|----------------------|
----------------------|----------------------|--8----8----8----8----|


                                                                      
----------------------|-----------------------|----------------------|
----------------------|-----------------------|----------------------|
----------------------|-----------------------|-----------3----------|
--3----3----3----3----|--1----1----1----1--1--|------1---------1--3--|


                                                                      
-----------------------|---------------------|-----------------------|
-----------------------|---------------------|-----------------------|
------------7----------|-----------5---------|--5----5----5----7--8--|
--5----5---------1--3--|------3-----------3--|-----------------------|


                                                                    
---------------------|----------------------|----------------------|
---------------------|----------------------|----------------------|
------8----8----8----|----------------------|----------------------|
---------------------|--8----8----8----8----|--3----3----3----3----|


                                                                              
-------------------------|-------------------------|-------------------------|
-------------------------|-------------------------|-------------------------|
--0----0---1--1-1--------|--0----0---1--1-1--------|--0----0---1--1-1--------|
-------------------3--3--|-------------------3--3--|-------------------3--3--|


                                                                                
-------------------------|--------------------------|--------------------------|
-------------------------|--------------------------|--2--3--2--2--2--3--2--2--|
--0----0---1--1-1--------|--0--0--0--0--3--3--3--3--|--------------------------|
-------------------3--3--|--------------------------|--------------------------|


                                                      
--------------------------|--------------------------|
--------------------------|--0--2--2--2--0--2--2--2--|
--0--0--0--0--------------|--------------------------|
--------------1--1--1--1--|--------------------------|


                                                      
--------------------------|--------------------------|
--------------------------|--2--3--2--2--2--3--2--2--|
--0--0--0--0--3--3--3--3--|--------------------------|
--------------------------|--------------------------|


                                                      
--------------------------|--------------------------|
--------------------------|--0--2--2--2--0--2--2--2--|
--0--0--0--0--------------|--------------------------|
--------------1--1--1--1--|--------------------------|


                                                      
--------------------------|--------------------------|
--------------------------|--------------------------|
--2--2--2--2--2--2--2--2--|--0--0--0--0--0--0--0--0--|
--------------------------|--------------------------|


                                                      
--------------------------|--------------------------|
--------------------------|--------------------------|
--5--5--5--5--5--5--5--5--|--------------------------|
--------------------------|--3--3--3--3--5--5--5--5--|


                                                      
--------------------------|--------------------------|
--------------------------|--------------------------|
--------------------------|--------------------------|
--6--6--6--6--6--6--6--6--|--3--3--3--3--3--3--3--3--|


                                                      
--------------------------|--------------------------|
--------------------------|--------------------------|
--3--3--3--3--3--3--3--3--|--4--4--4--4--4--4--4--4--|
--------------------------|--------------------------|


                                                      
--------------------------|--------------------------|
--------------------------|--------------------------|
--5--5--5--5--5--5--5--5--|--5--5--5--5--5--5--5--5--|
--------------------------|--------------------------|


                                                                               
--------------------------|------------------------|--------------------------|
--------------------------|------------------------|--------------------------|
--0--2--2--2--0--2--2--2--|--2--2--7--6--5----0----|--0--2--2--2--0--2--2--2--|
--------------------------|------------------------|--------------------------|


                                                                             
------------------------|--------------------------|------------------------|
------------------------|--------------------------|------------------------|
--2--2--7--6--5----5----|--0--2--2--2--0--2--2--2--|--2--2--7--6--5----0----|
------------------------|--------------------------|------------------------|


                                                                               
--------------------------|------------------------|--------------------------|
--------------------------|------------------------|--------------------------|
--0--2--2--2--0--2--2--2--|--2--2--7--6--5----5----|--4--4--4--4--4--4--4--4--|
--------------------------|------------------------|--------------------------|


                                                      
--------------------------|--------------------------|
-----------------2--2-----|--------------------------|
--1--1--1--2--2--------2--|--4--4--4--4--4--4--4--4--|
--------------------------|--------------------------|


                                                      
--------------------------|--------------------------|
-----------------2--2-----|--------------------------|
--1--1--1--2--2--------2--|--4--4--4--4--4--4--4--4--|
--------------------------|--------------------------|


                                                      
--------------------------|--------------------------|
-----------------2--2-----|--------------------------|
--1--1--1--2--2--------4--|--4--4--4--4--4--4--4--4--|
--------------------------|--------------------------|


                                                                          
--------------------------|-----------------------|----------------------|
-----------------2--2-----|-----------------------|----------------------|
--1--1--1--2--2--------2--|--5----5----5----7--8--|------8----8----8-----|
--------------------------|-----------------------|-------------------8--|


                                                                      
-----------------------|---------------------|-----------------------|
-----------------------|---------------------|-----------------------|
-----------------------|-----------5---------|--5----5----5----7--8--|
--5----5----5----3--3--|------3-----------3--|-----------------------|


                                                                      
----------------------|-----------------------|----------------------|
----------------------|-----------------------|----------------------|
------8----8----0--2--|--3------2--3----0--2--|----------------------|
----------------------|-----------------------|--3----3----3----3----|


                                                                       
----------------------|-----------------------|-----------------------|
----------------------|-----------------------|-----------------------|
----------------------|------------3----------|------------7----------|
--1----1----1----1----|--1----1---------1--3--|--5----5---------1--3--|


                                                                    
---------------------|----------------------|----------------------|
---------------------|----------------------|----------------------|
-----------5---------|--5----5----5----7----|--8----8----8----8----|
------3-----------3--|----------------------|----------------------|


                                                                           
----------------------|----------------------|----------------------------|
----------------------|----------------------|----------------------------|
----------------------|----------------------|----------------------------|
--8----8----8----8----|--3----3----3----3----|--5-5--5-5--5-5--5-3--6--5--|


                                                          
----------------------------|----------------------------|
----------------------------|----------------------------|
----------------------------|----------------------------|
--5-5--5-5--5-5--5-3--6--8--|--5-5--5-5--5-5--5-3--6--5--|


                                                          
----------------------------|----------------------------|
----------------------------|----------------------------|
----------------------------|----------------------------|
--5-5--5-5--5-5--5-3--6--8--|--5-5--5-5--5-5--5-3--6--5--|


                                                          
----------------------------|----------------------------|
----------------------------|----------------------------|
----------------------------|----------------------------|
--5-5--5-5--5-5--5-3--6--8--|--5-5--5-5--5-5--5-3--6--5--|


                                                                    
----------------------------|-------------------|------------------|
----------------------------|-------------------|------------------|
----------------------------|-------------------|------------------|
--5-5--5-5--5-5--5-3--6--8--|--3----------------|------------------|


                     
-------------------||
-------------------||
-------------------||
--5----------------||
Comments