Blind Guardian - The Abby Of Your Eyes Chords & Tabs

 

The Abby Of Your Eyes Chords & Tabs

Blind Guardian Chords & Tabs

Version: 1 Type: Tab 0 ratings
1 star 2 stars 3 stars 4 stars 5 stars
comments

The Abby Of Your Eyes Tab

Music : The Abyss Of your Eyes
Album : VISIONS

 Guitar 1/2 step down!!!
-------------------------
/\/ = Vibrato
/   = Slide Up
ha  = Harmonic
1/2 = bend half step
 1b
/\ = Bend one tone
-------------------------

Intro:
eb|-----------------------------------------------------------|-------------|
Bb|------------------------|----------------------------------|-------------|
Gb|------------------------|----------------------------------|-------------|
Db|---2-/4-2-4--2-/4--2-4--|--4-/5-4-5---2-/4-2-4--2-/4--2-4--|--4-/5-4-5---|
Ab|---2--2-2-2--2--2--2-2--|--3--3-3-3---2--2-2-2--2--2--2-2--|--3--3-3-3---|
Eb|-------------------------------------------------------------------------|


Riff A      Pm....       ...      .... ... ..    ....      ....
eb|-------------------------------------------------------------------------|
Bb|-------------------------------------------------------------------------|
Gb|-------------------------------------------------------------------------|
Db|--2-/4------------2-/4-----2-/4------2/4---4/5------4/-5-----4-/5--4-4/5-|
Ab|--2--2------2-2---2--2-2-2-2--2--2-2-2-2-2-3-3--3-3-3--3-3-3-3--3--3-3-3-|
Eb|-------------------------------------------------------------------------|


Riff A      Pm....       ...      .... ... ..    ....      ....
eb|-------------------------------------------------------------------------|
Bb|-------------------------------------------------------------------------|
Gb|-------------------------------------------------------------------------|
Db|--2-/4------------2-/4-----2-/4------2/4---4/5------4/-5-----4-/5--4-4/5-|
Ab|--2--2------2-2---2--2-2-2-2--2--2-2-2-2-2-3-3--3-3-3--3-3-3-3--3--3-3-3-|
Eb|-------------------------------------------------------------------------|

Keyboard ar. for Guitar                                           /----2X---
eb|----------------------------------------------------5--------------------|
Bb|--7-5-----7-5---7-5----7-5----7-5----8-7----8-7--------8--7--8-|---5-----|
Gb|-------4------4-----4------4------4------5------5--------------|-----4---|
Db|---------------------------------------------------------------|-------2-|
Ab|---------------------------------------------------------------|---------|
Eb|-------------------------------------------------------------------------|

-----------------------------------\    I feel like I'm drowning ...
eb|-------------------------------------------------------------------------|
Bb|---------5-4-----------6-5--3--5--|----------------------------3\/\/\----|
Gb|------2-------------3-------------|----------0-/\/\---------0------------|
Db|----2------------5----------------|--------4------------4----------------|
Ab|--0------------3------------------|-----2-------------3------------------|
Eb|-------------------------------------0-----------------------------------|

PRE-CHORUS
deep Underneath my skin...                   hear my cry...

eb|-------------------------------------------------------------------------|
Bb|-------------------------------------------------------------------------|
Gb|-------------------------------------------------------------------------|
Db|--2-/4-4-4--4-4-4-2-/4-----2-/4------2/4---4/5------4/-5-----4-/5--4-4/5-|
Ab|--2--2-2-2--2-2-2-2--2-2-2-2--2--2-2-2-2-2-3-3--3-3-3--3-3-3-3--3--3-3-3-|
Eb|-------------------------------------------------------------------------|

My life is changing... I cannot Recall...    The Abyss of your Eyes...

eb|-------------------------------------------------------------------------|
Bb|-----------------------------------|----7-5----7-5---7-5----7-5----8-7---|
Gb|--2-2-/\/\/------------------------|--------4------4-----4------4------5-|
Db|--2-2-/\/\-----------5--5/\/-------|-------------------------------------|
Ab|--0-0/\/\/-----------3--3/\/-------|-------------------------------------|
Eb|-------------------------------------------------------------------------|


                      I Losing my mind...
eb|---------5---------------------------------------------------------------|
Bb|--8-7------8-7-8-|-----5------------5-4--------6-5-3-5-|-----------------|
Gb|------5----------|-------4--------2----------3---------|-----------------|
Db|-----------------|---------2----2----------5-----------|-----------------|
Ab|-----------------|------------2----------3-------------|-----------------|
Eb|-------------------------------------------------------------------------|

The Sun Doesn't shine

eb|-------------------------------------------------------------------------|
Bb|-----------------------3/\/--|----------------------3/\/\|-rEPEAt--------|
Gb|-----------0-/\/----0--------|-------0-/\/\-------0------|----pRE cHOrus-|
Db|---------4--------4----------|-----4------------4--------|---------------|
Ab|------2---------3------------|---2-----------3-----------|---------------|
Eb|---0---------------------------0-----------------------------------------|

So Many years my drifting heart...
[ Tab from: http://www.guitartabs.cc/tabs/b/blind_guardian/the_abby_of_your_eyes_tab.html ]
eb|-------------------------------------------------------------------------|
Bb|-------------------------------------------------------------------------|
Gb|---2-/\/\------------5-/\/\----------5-----------------------------------|
Db|---2-/\/\----5-/\/\--5-/\/\---5-/\/\-5---9--9--9--9--9--9--9-------------|
Ab|---0---------5-/\/\--3--------5-/\/\-3---7--7--7--7--7--7--7-------------|
Eb|-------------3----------------3-/\/\-------------------------------------|

          Bar
Solo     /\    /\                                         Pm...............
eb|-----/--\--/--\----------------------------------------------------------|
Bb|--Ha/----\/----\----/---5-/--13-\-12-\-10-\-8-\6-\4---|------------------|
Gb|---4------------\--/----------------------------------|--2------------Ha-|
Db|-----------------\/-----2-/--11-\-10-\--7-\-5-\3-\2---|----5-3-2----2--2-|
Ab|------------------------------------------------------|----------5---5---|
Eb|-------------------------------------------------------------------------|


eb|-------------------------------------------------------------------------|
Bb|-------------------------------------------------------14-16-17----------|
Gb|---------------------------------13--15--16--13-15-16-----------16-15-13-|
Db|-----------------------13-14--16-----------------------------------------|
Ab|------------13-14--16----------------------------------------------------|
Eb|--12-13--15--------------------------------------------------------------|


                 /1\                  /1\                      1
eb|-------------15----12/14\15-14-12-15----/1-----------------/-\--------15-|
Bb|--14--16-16----------------------------15---17--17-15-12--14----15-17----|
Gb|-------------------------------------------------------------------------|
Db|-------------------------------------------------------------------------|
Ab|-------------------------------------------------------------------------|
Eb|-------------------------------------------------------------------------|


eb|--14---------------------13-14-16--14-13---------------------------------|
Bb|------17-15-19-17----17------------------16-14-13--17-16-----------------|
Gb|------------------16-------------------------------------16-15-13--------|
Db|-------------------------------------------------------------------16-15-|
Ab|-------------------------------------------------------------------------|
Eb|-------------------------------------------------------------------------|


eb|-------------------------------------------------------------------------|
Bb|-----------------------------------15-15--17-19-19\17/15-----15-----15-15|
Gb|------------------------13--15-16-------------------------15----16-------|
Db|------16-15--13------13--------------------------------------------------|
Ab|--13-------------14------------------------------------------------------|
Eb|-------------------------------------------------------------------------|


                                                       /1\
eb|------------------------------------14-15------19--17---17---------------|
Bb|-17--19------19--17-------16-19--19--------17--------------17-16--19--17-|
Gb|---------16----------16--------------------------------------------------|
Db|-------------------------------------------------------------------------|
Ab|-------------------------------------------------------------------------|
Eb|-------------------------------------------------------------------------|



eb|-------------------------------------------------------------------------|
Bb|-19----------------------------------------------------------------------|
Gb|------16--16--15-\13-----------------------------------------------------|
Db|-----------------------14--------------13-14-16---13--14--16-------------|
Ab|----------------------------13-14--16--------------------------13--14-16-|
Eb|-------------------------------------------------------------------------|



eb|--------------------------------------------------------------19-19------|
Bb|----------------------------------------------------------17--------17-19|
Gb|-----------------------------------------------15-17--17-----------------|
Db|------------------13-14---13-14-16---16-14-13----------------------------|
Ab|--13------13--16---------------------------------------------------------|
Eb|------14-----------------------------------------------------------------|
                                                                           /1
eb|--------------15--17--------------14--15--19--14--17--15--17--19-14-15-17|
Bb|--17--15--17----------17--19--15-----------------------------------------|
Gb|-------------------------------------------------------------------------|
Db|-------------------------------------------------------------------------|
Ab|-------------------------------------------------------------------------|
Eb|-------------------------------------------------------------------------|

Comments