Blind Guardian - Skalds And Shadows Chords & Tabs

 

Skalds And Shadows Chords & Tabs

Blind Guardian Chords & Tabs

Version: 1 Type: Tab

Skalds And Shadows Tab

Skalds and Shadows (Intro) 
By: Blind Guardian
Tabbed by: Ryan Boc: ryanboc@gmail.com

Just tabbing the notes for someone who wanted them over at the
BG forums. Here's the intro. You'll have to figure out the timing on
your own.


Guitar 1

|-------------------------------------------------|
|----------------1--------------------------------|
|-----4-------0-------2--------2------------------|
|--2-----2---------0-----0---------2--------------|
|-----------3----------------0--------------------|
|-------------------------------------------------|

Guitar 2
[ Tab from: http://www.guitartabs.cc/tabs/b/blind_guardian/skalds_and_shadows_tab.html ]
|--------2-3---5-2------2-------------------------|
|--5---5-----------5-3----5-----------------------|
|----4----------------------6---------------------|
|------------------------------7------------------|
|-------------------------------------------------|
|-------------------------------------------------|

Guitar 3 (listen to the song for when it comes in)

			       
|--12----12--14--15--12--15--14h15p14--14---------|
|-----12-----------------------------15--17-14----|
|---------------------------------------------14--|
|-------------------------------------------------|
|-------------------------------------------------|
|-------------------------------------------------|

Guitar 4 (when it comes in, replaces guitar 2 with this)

|--------2-3---3-2h3p2-----2-----------------------|
|--5---5-----5----------3-----5--------------------|
|----4--------------------------6------------------|
|---------------------------------7----------------|
|--------------------------------------------------|
|--------------------------------------------------|