Blind Guardian - Nightfall Chords & Tabs

 

Nightfall Chords & Tabs

Blind Guardian Chords & Tabs

Version: 1 Type: Bass Tab 0 ratings
1 star 2 stars 3 stars 4 stars 5 stars
comments

Nightfall Bass Tab

Intro

G|--------------|----------|------------|----------------|
D|--------------|----------|------------|6--4-2-4--------|
A|--------------|----------|7--6-4-6--6-|---------6------|
D|6--6-1-2--9-8-|6--6-8--8-|------------|------------9-8-|

Verse

G|--------------|-----------------|------------------|---------------------|
D|--------------|-----------------|----------------4-|6--4-2-4-------------|
A|--------------|---------------6-|7--6-4-6--4-6-7---|---------6-6-6-6-----|
D|6--6-1-2--9-8-|6--6-8--8-9-11---|------------------|-----------------8-9-|

G|------------|------------|------------|------------|
D|------------|------------|------------|------------|
A|------------|------------|------------|------------|
D|6-666-6-6-6-|2-222-2-2-2-|6-666-6-6-6-|4-444-4-4-4-|

G|------------|------------|------------|------------|
D|------------|------------|------------|----4-----4-|
A|------------|------------|------------|--4-----4---|
D|6-666-6-6-6-|2-222-2-2-2-|6-666-6-6-6-|4-----4-----|

G|------------|------------|
D|-------2----|2----------4|
A|6----6------|--4-6----6--|
D|--6------2--|------6-----|

G|--------------------6-------|----------------9-8-6-----|
D|----6/9-8-6-6h8p6h8---8h9p6-|6h8p6h8p9-8-6---------9-8-|
A|--6-------------------------|--------------9-----------|
D|6---------------------------|--------------------------|

G|------------|------------|-------------------|------------|
D|------------|------------|-------------------|------------|
A|------------|------------|-------------------|------------|
D|8-88888-6-6-|8-88888-6-6-|11-1111111111-11-8-|6-66666-6-6-|

G|------------|------------|-------------------|------------|
D|------------|------------|-------------------|------------|
A|------------|------------|-------------------|------------|
D|8-88888-8-8-|8-88888-8-8-|11-1111111111-11-8-|6-66666-4-4-|


Chorus

G|----------|----------|----------|----------| x3
D|----------|----------|----------|----------|
A|----------|----------|4-444-4-4-|6-66-8-88-|
D|8-888-8-8-|4-444-4-4-|----------|----------|

G|----------|----------|----------|----------| x1
D|----------|----------|----------|----------|
A|----------|----------|4-44------|4-44------|
D|8-888-8-8-|4-444-4-4-|-----4-44-|-----6-66-|


Verse

G|-------------------|----------------------|
D|----8-9-11-9-8-----|----------------------|
A|--8----------------|----------------------|
D|8--------------6-8-|9-8-6-8/13-8-9-99-3-3-|

G|------------|---------------------|------------|------------|
D|------------|---------------------|------------|------------|
A|------------|---------------------|------------|------------|
D|8888888-8-8-|11111111111111-11-11-|6666666-6-6-|9999999-9-9-|

G|----------------|------------| x3 |----------------|------------|
D|----------------|------------|    |----------------|------------|
A|----------------|------------|    |----------------|------------|
D|8-888-11-111111-|6-666-6-4-4-|    |8-888-11-111111-|6-666-6-6-8-|

G|------------|-----------|-----------|-----------|
D|------------|--R-E-S-T--|-----------|--R-E-S-T--|
A|------------|-----------|-----------|-----------|
D|10(let ring)|-----------|6(let ring)|-----------|
[ Tab from: http://www.guitartabs.cc/tabs/b/blind_guardian/nightfall_btab.html ]
set in again at: 'The words of a banished king...'

G|--------|--------| x4
D|--------|--------|
A|--------|----6---|
D|8---8--|6-------|


Chorus

G|----------|----------|----------|----------| x3
D|----------|----------|----------|----------|
A|----------|----------|4-444-4-4-|6-66-8-88-|
D|8-888-8-8-|4-444-4-4-|----------|----------|

G|----------|----------|----------|----------| x1
D|----------|----------|----------|----------|
A|----------|----------|4-44------|4-44------|
D|8-888-8-8-|4-444-4-4-|-----4-44-|-----6-66-|


Solo

G|----------|----------|----------|----------|
D|----------|----------|----------|----------|
A|----------|----------|----------|----------|
D|8-88888-88|333-3-3333|8-88888-88|333-3-3333|

G|------------|------------| x2
D|------------|------------|
A|444444------|444444------|
D|------444444|------666666|

G|--------|--------|------------|------------|------------|------------|
D|--------|--------|------------|------------|------------|------------|
A|------6-|------6-|------------|111111444444|------------|111111444444|
D|8-7-6---|8-7-6---|111111444444|------------|111111444444|------------|

G|------------|------------|------------|------------|
D|------------|------------|------------|------------|
A|------------|------111111|------444444|------------|
D|444444111111|444444------|666666------|4444443-----|

G|------------|------------| x2
D|------------|------------|
A|------6-6-6-|------4-4-4-|
D|8-888-------|6-666-------|


Verse

G|------------|------------|-------------------|------------| x2
D|------------|------------|-------------------|------------|
A|------------|------------|-------------------|------------|
D|8-88888-6-6-|8-88888-6-8-|11-1111111111-10-8-|6-66666-6-6-|

G|--------|------|---------|---------|----------|---------|
D|--------|------|---------|---------|----------|---------|
A|1--1-4--|4-1---|1-3-4--4-|------1--|1-4--4----|-------1-|
D|--------|------|---------|6--4-----|-------6--|6-4--4---|

G|----------|----------|----------|-------|
D|----------|----------|----------|-------|
A|1--1-1--1-|4--4-4--4-|----------|-------|
D|----------|----------|6--6-6--6-|444-666|

G|----------|-----------|----------|-------|
D|----------|-----------|----------|-------|
A|1--1-1--1-|4--4-4-3-1-|----------|-------|
D|----------|-----------|6--6-6--6-|444-666|


Chorus

G|----------|----------|----------|----------| x3
D|----------|----------|----------|----------|
A|----------|----------|4-444-4-4-|6-66-8-88-|
D|8-888-8-8-|4-444-4-4-|----------|----------|

G|----------|----------|----------|----------| x1
D|----------|----------|----------|----------|
A|----------|----------|4-44------|4-44------|
D|8-888-8-8-|4-444-4-4-|-----4-44-|-----6-66-|


Outro

G|----------|----------|--------|--------|
D|----------|----------|--------|--------|
A|1--1------|1--1------|--------|--------|
D|-----4-4--|-----3-3--|4--4-3--|4--4-3--|

G|----------|-------------|--------|-------------|-----------|
D|----------|-------------|--------|-------------|-----------|
A|1--1-1-1--|1--4-3-1-----|--------|-------------|1(let ring)|
D|----------|----------3--|4--4-3--|4--4-4-4-3---|-----------|
Comments